Song name
# A B C D E F G H I J K L M N O P Q R S T U V W X Y Z

Sugarcult - Underwear tab

----------------------------------------------------------------------------
			     UNDERWEAR - Sugarcult
----------------------------------------------------------------------------
Tabbed by: squizz
Email: squizzle007@hotmail.com

Tuning: standard

NB: the previous tab is correct, but if you want to acheive the 
fret sounds in the places as in the song, use this tab.

guitar 1 i assume is acoustic, but guitar 2 is electric. i tabbed 
both guitars with an acoustic. if this makes any difference to how 
it should be played, i apologise. but the notes are there.

i play guitar 1 by forming a Bmaj7 chord for the 7's, then an A
for the 2's, a barre G for the the 4's and 5's there, and a 
barre A for the 6 and 7's. i find it easier to change 
quickly because i know the chords. if i'm making any sense to you, 
i hope this helps :P

stick some vibrato in guitar 2 wherever you feel necessary. 
sounds pretty :D

Bmaj7  A   G   A
e-x----0---3---5---|
B-7----2---3---5---|
G-7----2---4---6---|
D-7----2---5---7---|
A-x----0---5---7---|
E-7----0---3---5---|


guitar 1 (continues throughout song)
e|------------------|    -2-|
B|---7--2-----------|    -2-|
G|---7--2---4---6---|    ---|
D|--------2-5---7---|    ---|
A|------------5---7-|    ---|
E|-7----------------| x3 ---|
                         (also played on "...stare" when verse is sung)

guitar 2 (enters the 3rd time the first riff is played)
e|8/9-8/9-------7/9\7-5-7|             -7\5-|
B|--------------5/7\5-3-5|             -7\5-|
G|-----------------------|             -----|
D|-----------------------|             -----|
A|-----------------------|             -----|
E|-----------------------|             -----|
                                (just before the vocals start)

e|-11/12-10-|
B|----------|
G|----------|
D|----------|
A|----------|
E|----------|
"wash the hands of all these things i've done"
"all the eyes..."
"pictures of the horrid things..."
"if i didn't act..."

e|-------|
B|-----7-|
G|---7---|
D|-------|
A|-------|
E|-7-----|
"if the body..."

e|-7\5-|
B|-7\5-|
G|-----|
D|-----|
A|-----|
E|-----|
"stare..."

e|-11/12-10--------------11/12-10-8/9-8/9----------|
B|----------11/12-10-5\3---------------------------|
G|-----------------------------------------7/9\7-9-|
D|-------------------------------------------------|
A|-------------------------------------------------|
E|-------------------------------------------------|
"aah"

e|-11/12-10--------------11/12-10-----7-|
B|----------11/12-10-5\3------------8---|
G|--------------------------------9-----|
D|--------------------------------------|
A|--------------------------------------|
E|--------------------------------------|

(go into this on the second lot of 'aah's for the trumpet outro)
e|-------|
B|-----7-|
G|---7---|
D|-------|
A|-------|
E|-7-----| x2

e|--2/9--7-5--2/9---------------------|
B|------------------------5/7-5-2-----|
G|-----------------4-7-4----------0/3-|
D|------------------------------------|
A|------------------------------------|
E|------------------------------------|

e|-11/12-10--------------11/12-10-8/9-8/9----------|
B|----------11/12-10-5\3---------------------------|
G|-----------------------------------------7/9\7-9-|
D|-------------------------------------------------|
A|-------------------------------------------------|
E|-------------------------------------------------|

e|-11/12-10--------------11/12-10-----7-|
B|----------11/12-10-5\3------------8---|
G|--------------------------------9-----|
D|--------------------------------------|
A|--------------------------------------|
E|--------------------------------------|


| /  slide up
| \  slide down
| h  hammer-on
| p  pull-off
| ~  vibrato
| +  harmonic
| x  Mute note
============================================================================
Tap to rate this tab
# A B C D E F G H I J K L M N O P Q R S T U V W X Y Z