Song name
# A B C D E F G H I J K L M N O P Q R S T U V W X Y Z

Sugarcult - Los Angeles tab

This is a really good song for beginners, have fun learning this song.

standard tuning

legend
/- slide down the neck

whole first verse is bass only

Pre Chorus
E|--4---6-------------------------4---2--------|
B|2---2-------------------------2---2----------|
G|---------------------------------------------|
D|---------------------------------------------|
A|---------------------------------------------|
E|---------------------------------------------|


CHORUS
E|---------------------------------|
B|---------------------------------|
G|3333333366666666--------88888888-|
D|33333333666666664444444488888888-|
A|11111111444444444444444466666666-|
E|----------------22222222---------|

E|---------------------------------|
B|---------------------------------|
G|3333333366666666-----------------|
D|33333333666666664444444466666666-|
A|11111111444444444444444466666666-|
E|----------------2222222244444444-|

E---------------------------------|
B---------------------------------|
G3333333366666666--------88888888-|
D33333333666666664444444488888888-|
A11111111444444444444444466666666-|
E----------------22222222---------|

|--------------------------|
|--------------------------|
|----8------8/-------------|
|----8------8/-------------|
|----6------6/-------------|
|--------------------------|
-fuck --fuck --fuck this up


|--------------------------|
|--------------------------|
|----8------8/-------------|
|----8------8/-------------|
|----6------6/-------------|
|--------------------------|
-feel --feel --feel you up


|-------------------------------------------------------|
|-------------------------------------------------------|
|------8--------8-------8-------8---------8-------------|
|------8--------8-------8-------8---------8-------------|
|------6--------6-------6-------6---------6-------------|
|-------------------------------------------------------|
-enough -enough --enough -------------------------------|enough in the heat of los angeles

CHORUS
E|---------------------------------|
B|---------------------------------|
G|3333333366666666--------88888888-|
D|33333333666666664444444488888888-|
A|11111111444444444444444466666666-|
E|----------------22222222---------|

E|---------------------------------|
B|---------------------------------|
G|3333333366666666-----------------|
D|33333333666666664444444466666666-|
A|11111111444444444444444466666666-|
E|----------------2222222244444444-|
repeat whole chorus 3 times


Bridge

e|-------------|
B|-------------|
G|------6------|
D|4--6--4--4---|
A|4--6--4--4---|
E|2--4-----2---|
repeat three times


CHORUS
E|---------------------------------|
B|---------------------------------|
G|3333333366666666--------88888888-|
D|33333333666666664444444488888888-|
A|11111111444444444444444466666666-|
E|----------------22222222---------|

E|---------------------------------|
B|---------------------------------|
G|3333333366666666-----------------|
D|33333333666666664444444466666666-|
A|11111111444444444444444466666666-|
E|----------------2222222244444444-|
repeat 4 times

After the fourth time end on

E|---|
B|---|
G|3--|
D|3--|
A|1--|
E|---|

or

E|---|
B|---|
G|---|
D|8--|
A|8--|
E|6--|
Tap to rate this tab
# A B C D E F G H I J K L M N O P Q R S T U V W X Y Z