Guitaretab - guitar tabs
Song name
# A B C D E F G H I J K L M N O P Q R S T U V W X Y Z

Suicide Machines - Everyday Life tab

e: Thu, 19 Mar 1998 12:06:36 -0600 (CST)
From: Samuel Fletcher IV Barker 
Subject: everyday life by the suicide machines


verse:  F#ii  Gii  Abii  Aii  Cii

chorus 1:
C  Bb  F
       everyday life
C  Bb  F
       i'm still alive
C  Bb  F
       everyday life
C  Bb  F
       i can't hide

repeat verse

repeat chourus 1

chorus 2:
F  Bb  C
   everyday
F  Bb  C
   everyway
F     Bb      C
gotta live my life
F  Bb       C
   one more time 
    
solo:
D-/-------------------------3-3-----5-5-3-2-0---3-2-0---/
A-/-3-1-1-0-1-0-1-0-1---1-1-----3-3-----------3-------3-/
E-/-------------------1---------------------------------/

repeat chorus 2 (w/out lyrics)

repeat chorus 1

end

chords used:
    F   Bb  C  F#ii  Gii G#ii Aii  Cii
e-/---/---/---/----/----/----/----/----/
B-/---/---/---/----/----/----/----/----/
G-/---/-3-/-5-/-11-/-12-/-13-/-14-/-17-/
D-/-3-/-3-/-5-/-11-/-12-/-13-/-14-/-17-/
A-/-3-/-1-/-3-/--9-/-10-/-11-/-12-/-15-/
E-/-1-/---/---/----/----/----/----/----/
[ Tab from: http://www.guitaretab.com/s/suicide-machines/18705.html ]
Related for Everyday Life tab
×
Everyday Life