Song name
# A B C D E F G H I J K L M N O P Q R S T U V W X Y Z

Suicide Silence - Slaves To Substance tab

This can also be played on a six string in standard tuning

|---------------------|
|---------------------|
|---------------------|
|--13--------12-------|
|---------------------|
|---------------------|
|---------------------|

|----------------10h14p10----------------------------10h14p10-------------|
|-------------12----------12----------------------12----------12----------|
|----------11----------------11----------------11----------------11-------|
|-------12----------------------12----------12----------------------12----|
|-10h14----------------------------14p10h14----------------------------14-|
|-------------------------------------------------------------------------|
|-------------------------------------------------------------------------|

|---------------11h15p11-----------------------------11h15p11-------------|
|------------13----------13-----------------------13----------13----------|
|---------12----------------12-----------------12----------------12-------|
|------13----------------------13-----------13----------------------13----|
|-11h15----------------------------15p11h15----------------------------15-|
|-------------------------------------------------------------------------|
|-------------------------------------------------------------------------|

|----------------14h17p14----------------------------14h17p14-------------|
|-------------16----------16----------------------16----------16----------|
|----------15----------------15----------------15----------------15-------|
|-------16----------------------16----------16----------------------16----|
|-13h18----------------------------18p13h18----------------------------18-|
|-------------------------------------------------------------------------|
|-------------------------------------------------------------------------|

|----------------------|
|----------------------|
|----------------------|
|---10--------9--------|
|----------------------|
|----------------------|
|----------------------|

|----------------10h14p10----------------------------10h14p10-------------|
|-------------12----------12----------------------12----------12----------|
|----------11----------------11----------------11----------------11-------|
|-------12----------------------12----------12----------------------12----|
|-10h14----------------------------14p10h14----------------------------14-|
|-------------------------------------------------------------------------|
|-------------------------------------------------------------------------|

|---------------11h15p11-----------------------------11h15p11-------------|
|------------13----------13-----------------------13----------13----------|
|---------12----------------12-----------------12----------------12-------|
|------13----------------------13-----------13----------------------13----|
|-11h15----------------------------15p11h15----------------------------15-|
|-------------------------------------------------------------------------|
|-------------------------------------------------------------------------|

|----------------14h17p14----------------------------14h17p14-------------|
|-------------16----------16----------------------16----------16----------|
|----------15----------------15----------------15----------------15-------|
|-------16----------------------16----------16----------------------16----|
|-13h18----------------------------18p13h18----------------------------18-|
|-------------------------------------------------------------------------|
|-------------------------------------------------------------------------|

|-----------------------------|
|-----------------------------|
|-----------------------------|
|--10------9------13------12--|
|-----------------------------|
|-----------------------------|
|-----------------------------|
Tap to rate this tab
 
# A B C D E F G H I J K L M N O P Q R S T U V W X Y Z