Song name
# A B C D E F G H I J K L M N O P Q R S T U V W X Y Z

Sum 41 - Some Say Acoustic tab

-------------------------------------------------------------------------------
			     Some Say acoustic - Sum 41
-------------------------------------------------------------------------------

Tuning: standart

you can listen to this version of 'some say' here: http://www.youtube.com/watch?v=7TB-O_CXLsc

Intro: (strumming is not shown)
e|--------------------------------------------------------------------------|
B|--------------------------------------------------------------------------|
G|---7--------------5-------------------5-----------------------------------|
D|---7----8----3----5----8---------3----5----8------------------------------|
A|---5----8----3----3----x----8----3----3----x----8-------------------------|
E|--------6----1---------6----6----1---------6----6-------------------------|

Verse: (strumming is not shown)
e|---------------------------------------------------------------------------|
B|---------------------------------------------------------------------------|
G|---7-----------------------------------------------------------------------|
D|---7-------3-------5-------8-----------------------------------------------|
A|---5-------3-------5-------8-----------------------------------------------|
E|-----------1-------3-------6-----------------------------------------------|

Chorus: (strumming is not shown)
e|---------------------------------------------------------------------------|
B|---------------------------------------------------------------------------|
G|--7------------------------------------------------------------------------|
D|--7----8----3----5----5----3----5----8-------------------------------------|
A|--5----8----3----5----5----3----5----8-------------------------------------|
E|-------6----1----3----3----1----3----6-------------------------------------|

Solo: (this solo is actually played by a piano, but you can also play it     
       with the guitar)
 
1st part: play 2 times                           2nd part: play 2 times
e|---------------------------------------------||-----------------------------|
B|---------------------------------------------||-----------------------------|
G|--------5------2-3-2-3-2---0---2---3---2-3-0-||-------0---2---3-2-0-2-3-2---|
D|--3--0------3--------------------------------||---3-------------------------|
A|---------------------------------------------||-----------------------------|
E|---------------------------------------------||-----------------------------|
                                solo end:
e|----------------------------||-----------------------------------------------|
B|----------------------------||-----------------------------------------------|
G|--0--------0-0---2-2-3-2-0--||-----------------------------------------------|
D|------3-3-------------------||--0-----0---0----------------------------------|
A|----------------------------||-----1----1------------------------------------|
E|----------------------------||-----------------------------------------------|

That's it, have fun and please rate :)
Tap to rate this tab
 
# A B C D E F G H I J K L M N O P Q R S T U V W X Y Z