Song name
# A B C D E F G H I J K L M N O P Q R S T U V W X Y Z

Sum 41 - Pieces tab

Band: Sum 41 (Kaspir)
Album: Chuck (2004)
Song: Pieces (#11/After the song "Welcome to Hell")
Released: September 24, 2004
Lenght: 3:00

Legend:
h- Hammer On
p- Pull Off
b- Bend Strings
r- Release Strings 
D- Strum Down
U- Strum Up
///- Slide Down (On frets)
\\\- Slide Up (On frets)
\p\- Pick Slide Up (On strings)
/p/- Pick Slide Down (On strings)
...- Palm Mute 
XXX- Dead Note
~~~- Let Ring
4_4- Time Signature

Lead Guitar (Deryck Whibley) and a part of the Rhythm Guitar, the bridge and solo (Dave Baksh).
Guitar Tuning: Standard Tuning or Drop D Tuning (Both Work)

Intro (0:00) x3  "I tried to be perfect, but nothing was worth it..."
   Em  Em  Em  Em Em  Em   C  C     C   C   C   C  C   C   G  G  
e|--0---0---0---0--0---0---0--0--|--0---0---0---0--0---0---2--2--|            
B|--0---0---0---0--0---0---1--1--|--1---1---1---1--1---1---2--2--|         
G|--0---0---0---0--0---0---0--0--|--0---0---0---0--0---0---0--0--|
D|--2---2---2---2--2---2---2--2--|--2---2---2---2--2---2---0--0--|
A|--2---2---2---2--2---2---3--3--|--3---3---3---3--3---3---3--3--|
E|--0---0---0---0--0---0---------|-------------------------2--2--|            
    D   D   D   D  U   D   D  U     D   D   D   D  U   D   D  U   
      
    G   G   G   G  G   G   D  D     D   D   D   D  D   D  Em Em                                  
e|--2---2---2---2--2---2---2--2--|--2---2---2---2--2---2---0--0--|
B|--2---2---2---2--2---2---3--3--|--3---3---3---3--3---3---0--0--|
G|--0---0---0---0--0---0---2--2--|--2---2---2---2--2---2---0--0--|
D|--0---0---0---0--0---0---0--0--|--0---0---0---0--0---0---2--2--|
A|--3---3---3---3--3---3---------|-------------------------2--2--|
E|--2---2---2---2--2---2---------|-------------------------0--0--|
    D   D   D   D  U   D   D  U     D   D   D   D  U   D   D  U

Verse (0:29) x2 "If you believe it's in my soul, I'd say..." 
    C   C   C   C  C         G   G   G   G  G         D   D   D   D  D
e|--0---0---0---0--0--|   |--2---2---2---2--2--|   |--2---2---2---2--2--|
B|--1---1---1---1--1--|   |--2---2---2---2--2--|   |--3---3---3---3--3--|
G|--0---0---0---0--0--|   |--0---0---0---0--0--|   |--2---2---2---2--2--|
D|--2---2---2---2--2--|x4 |--0---0---0---0--0--|x2 |--0---0---0---0--0--|x2
A|--3---3---3---3--3--|   |--3---3---3---3--3--|   |--------------------|
E|--------------------|   |--2---2---2---2--2--|   |--------------------|  
    D   D   D   D  U         D   D   D   D  U         D   D   D   D  U
End the verse on: G|--3~--|                
                  D|--3~--|
                  A|--1~--|
                  
Because the Chorus is the same as the Intro, just repeat the Intro. The Verse 
is also the same throughout the song.

Chorus (0:53) "This place is so empty, my thoughts are so tempting..."
Verse  (1:22) "If you believe it's in my soul, I'd say all the words that..."

Bridge (1:46) "(On my own!)"

Guitar 1:
    F  F   F   F   F   F  F   F   F   F   
e|--5--5---5---5---5---5--5---5---5---5--|
B|--5--5---5---5---5---5--5---5---5---5--|
G|--6--6---6---6---6---6--6---6---6---6--|
D|--7--7---7---7---7---7--7---7---7---7--|
A|--7--7---7---7---7---7--7---7---7---7--|
E|--5--5---5---5---5---5--5---5---5---5--|
    D  U   D   D   D   D  U   D   D   D  |\ 
                                         |||--->x2       
    F  F   F   F   F   F  F   F   F   F  |/                 
e|--1--1---1---1---1---1--1---1---1---1--|
B|--1--1---1---1---1---1--1---1---1---1--|
G|--2--2---2---2---2---2--2---2---2---2--|
D|--3--3---3---3---3---3--3---3---3---3--|
A|--3--3---3---3---3---3--3---3---3---3--|
E|--1--1---1---1---1---1--1---1---1---1--|
    D  U   D   D   D   D  U   D   D   D                                     

Guitar 2: (Drop D Tuning)
B|------------------|   B|------------------|    |\ 
G|--10--10--10--12--|x3 G|--14--14--14--14--|x1->|||----> x2    
D|--10--10--10--10--|   D|--10--10--10--10--|    |/
A|------------------|   A|------------------|
    D   U   D   U           D   U   D   U   

Solo (1:56)

Guitar 1:
    G   G   G   G  G         D   D   D   D  D   ___                               
e|--2---2---2---2--2--|   |--2---2---2---2--2--|   |\                     
B|--2---2---2---2--2--|   |--3---3---3---3--3--|   | \                
G|--0---0---0---0--0--|   |--2---2---2---2--2--|   |  \ ______\ Repeat this           
D|--0---0---0---0--0--|x2 |--0---0---0---0--0--|x2 |  /       / part twice!   
A|--3---3---3---3--3--|   |--------------------|   | /                  
E|--2---2---2---2--2--|   |--------------------|___|/            
    D   D   D   D  U         D   D   D   D  U                             
                                                                       
    F  F   F   F   F   F   F   F   F   F   F   F   F   F   F~
e|--1--1---1---1---1---1---1---1---1---1---1---1---1---1---1~--|
B|--1--1---1---1---1---1---1---1---1---1---1---1---1---1---1~--|
G|--2--2---2---2---2---2---2---2---2---2---2---2---2---2---2~--|
D|--3--3---3---3---3---3---3---3---3---3---3---3---3---3---3~--|
A|--3--3---3---3---3---3---3---3---3---3---3---3---3---3---3~--|
E|--1--1---1---1---1---1---1---1---1---1---1---1---1---1---1~--|
    D  U   D   D   D   D   D   D   D   D   D   D   D   D   D~             

Guitar 2: (Drop D Tuning)                
B|----------10------|\            |---------------|\
G|--10--------------| \___\Repeat |--------10-----| \___\Repeat
D|------10------10--| /   /Twice! |--8------------| /   /Twice!
A|------------------|/            |-----8------8--|/
    D   U   D   U                    D  U  D   U                         
  
B|----------------|\            |---------------|\
G|---------10-----| \___\Repeat |--------10-----| \___\Repeat
D|--10------------| /   /Twice! |--8------------| /   /Twice!
A|------8------8--|/            |-----8------8--|/
    D   U  D   U                   D  U  D   U

G|--7--7---7---7---7---7---7---7---7---7---7---7---7---7---7~--|
D|--7--7---7---7---7---7---7---7---7---7---7---7---7---7---7~--|
A|--5--5---5---5---5---5---5---5---5---5---5---5---5---5---5~--|
    D  U   D   D   D   D   D   D   D   D   D   D   D   D   D~  

Chorus (2:10) "I tried to be perfect, it just wasn't worth it..."           
Verse  (2:30) "If you believe it's in my soul, I'd say all the words that..."

End the song on: G|--5~--|
                 D|--5~--|
                 A|--3~--|
And that's basically it. :)
Questions? Comments? Concerns? Contact me at mitevskinikola@hotmail.com
Thanks for viewing my tab for an amazing song by an amazing band! :)

If you believe that my tab is wrong, go here:
http://www.youtube.com/watch?v=80l0XWR9CO8
This cover was done by "susumetal" and he included a tab in the description.
(I do not own that cover or tab. It is purely the work of "susumetal" and the song 
was the work of Sum 41)
_____________________________________________________________________________
Legal Stuff:
This song belongs to Sum 41 and anyone else (legally) associated with this song. I 
do not own this song in any way, shape, or form. (I simply created a tab for this 
song that I hope is pretty accurate.)
_____________________________________________________________________________


Tap to rate this tab
# A B C D E F G H I J K L M N O P Q R S T U V W X Y Z