Song name
# A B C D E F G H I J K L M N O P Q R S T U V W X Y Z

Sum 41 - Walking Disaster chords

Highlighted       Show chord diagrams
Walking Disaster

Key: B

Tuning: Standard EADGBe

Chords used:
B -   x24442
F# -  244322
G#m - 466444
E -   022100 or 079997
C#m - x46654
Ebm - x68876


Intro: B


Verse 1: Slow beat
B                           F#
  I haven't been home for a while
                          Abm
I'm sure everything's the same
                      E
Mom and Dad both in denial
                          B
An only child to take the blame
                        F#
Sorry, Mom, but I don't miss you
                       Abm
Father's no name you deserve
                         E
I'm just a kid with no ambitions
Wouldn't come home for the world


Refrain 1:
Abm
  Never know what
       E
I've become
The king of all that's
         B
said and done
              F#
The forgotten son
Abm
This city's buried
     E
in defeat
I walk along these
        B
no name streets
                F#
Wave goodbye to all
     Abm(hold)-F#(hold)-E(hold)
As I fall


Interlude: Beat switch to fast punk!!!

B--G#m--F#--E, Bass Lines: B---B-F#-G#m-E

Guitar 2:
     B        Abm      F#       E
e|--------|--------|--------|--------|
B|--------|--------|--------|--------|
G|---11-8-|---11-8-|-11--13-|-15--16-|
D|-9--x-x-|-9--x-x-|--x---x-|--x---x-|
A|-x--9-6-|-x--9-6-|--9--11-|-13--14-|
E|-7------|-7------|--------|--------|
     x2       x2


Verse 2:
B                     F#
  At the dead end I begin
To burn the bridge
       F#
of innocence
                   E
Satisfaction guaranteed
A pill away catastrophe
B                      F#
  On a mission nowhere bound
                 Abm
Inhibitions underground
A shallow grave I
     E
Have dug all by myself


Refrain 2:
        E
And now I've been
         B  F#
gone for so long
  E
I can't remember
B       F#
who was wrong
    E
All innocence
   B    F#
is long gone
  E
I pledge allegiance to
  B             F#(hold)
a world of disbelief
Where I belong


Chorus:
B          F#
  A walking disaster
Abm         E
  The son of all bastards
B           F#
  You regret you made me
Abm            E
  It's too late to save me


Post chorus:
B(hold)
  You regret you made me
It's too late to save me


Interlude: B--G#m--F#--E

Guitar 2:
     B        Abm      F#       E
e|--------|--------|--------|--------|
B|--------|--------|--------|--------|
G|---11-8-|---11-8-|-11--13-|-15--16-|
D|-9--x-x-|-9--x-x-|--x---x-|--x---x-|
A|-x--9-6-|-x--9-6-|--9--11-|-13--14-|
E|-7------|-7------|--------|--------|
     x2       x2


Verse 3:
   B
As far as I can tell
          F#
It's just voices in my head
     Abm
Am I talking to myself?
        E
Cause I don't know
what I just said
(And she said)
B
Far is where I fell
          F#
Maybe I'm better off dead
     Abm
Am I at the end of nowhere
        E
Is this as good as it gets?


(Repeat Refrain 2 and Chorus)


Bridge:
Abm         F#          E
  To save me, to save me, to save me...
B          F#           E
  To save me, to save me, to save me...
(Repeat x4)


B--C#m--Ebm--E


B          F#           Abm         E(hold)
  To save me, to save me, to save me...


(Repeat Refrain 2 and chorus)


Interlude: B--G#m--F#--E x2

Guitar 2:
     B        Abm      F#       E
e|--------|--------|--------|-------|
B|--------|--------|--------|-------|
G|---11-8-|---11-8-|---11-8-|-4-6-8-|
D|-9--x-x-|-9--x-x-|-9--x-x-|-x-x-x-|
A|-x--9-6-|-x--9-6-|-x--9-6-|-2-4-6-|
E|-7------|-7------|-7------|-------|
     x2       x2       x2       x2


     B        Abm      F#       E
e|--------|--------|--------|--------|
B|--------|--------|--------|--------|
G|---11-8-|---11-8-|-11--13-|-15--16-|
D|-9--x-x-|-9--x-x-|--x---x-|--x---x-|
A|-x--9-6-|-x--9-6-|--9--11-|-13--14-|
E|-7------|-7------|--------|--------|
     x2       x2


Outro: Beat switch back to slow
B                     F#
  I will be home in a while
                       Abm
You don't have to say a word
                         E
I can't wait to see you smile
Wouldn't miss it for the world
(Repeat)

B(hold)
Tap to rate this tab
# A B C D E F G H I J K L M N O P Q R S T U V W X Y Z