Song name
# A B C D E F G H I J K L M N O P Q R S T U V W X Y Z

Sum 41 - Confusion And Frustration In Modern Times tab

Confusion and Frustration in Modern Times
By: Sum 41

Standard Tuning

intro (clean with wah)

e|---------------------------------------------------------------------|
B|---------------------------------------------------------------------| 
G|---------------------------------------------------------------------|
D|------------------999-999-99999999-----------------------------------|(x2)
A|-666-666-66666666-777-777-77777777-999-999-99999999-444-444-44444444-|
E|-444-444-44444444------------------777-777-77777777-222-222-22222222-|

e|----------------------|
B|----------------------|
G|----------------------|
D|-2----xxxxxxxxxxxxxxxx|
A|-2----xxxxxxxxxxxxxxxx|
E|-0----xxxxxxxxxxxxxxxx|

Main Riff (Distortion)

e|---------------------------------|--------------------------------|
B|---------------------------------|--------------------------------|
G|-4-44-4--------------------------|4-xxxx--------------------------|
D|-4-44-42-2-222226-66-6-2-2-22222-|4-xxxx2-2-2222-4-xxxxxxxxxxxxxx-|
A|-2-22-22-2-222226-66-6-2-2-22222-|2-xxxx2-2-2222-4-xxxxxxxxxxxxxx-|
E|-------0-0-000004-44-4-0-0-00000-|------0-0-0000-2-xxxxxxxxxxxxxx-|

verse

Up in smoke, pop goes the culture...

e|----------------------------------||
B|----------------------------------||
G|-4-44444444444444-----------------|| (x2)
D|-4-444444444444446-6666662-222222-||
A|-2-222222222222226-6666662-222222-||
E|-----------------4-4444440-000000-||

pre-chorus

So what went wrong, raise the voice of reason...

e|--------------------------||
B|--------------------------||
G|---------44444444---------|| (x2)
D|-6-6-2-2-4444444444444444-||
A|-6-6-2-2-2222222244444444-||
E|-4-4-0-0---------22222222-||

Apathy plus ice...

e|-------------------------------------------|
B|-------------------------------------------|
G|-------------------------------------------|
D|-----------------4-444444------------------|
A|-6-6666662-2222222-2222224-4444446-6666662-|
E|-4-4444440-000000--------2-2222224-4444440-|
     ......  ......  ......  ......  ......

Chorus

Confusion`s all i see..

e|---------------------------------|---------------------------|
B|---------------------------------|---------------------------|
G|-4-4-4-4-------------------------|4-4-4-4--------------------|
D|-4-4-4-4-4-4-4-4-6-6-6-6-2-2-2-2-|4-4-4-4-4-4-4-4-6-6-6-6-2--|
A|-2-2-2-2-4-4-4-4-6-6-6-6-2-2-2-2-|2-2-2-2-4-4-4-4-6-6-6-6-2--|
E|---------2-2-2-2-4-4-4-4-0-0-0-0-|--------2-2-2-2-4-4-4-4-0--|

Post-Chorus

e|---------------|
B|---------------|
G|---------------|
D|--xxxxxxxxxxxx-|
A|-2xxxxxxxxxxxx-|
E|-2xxxxxxxxxxxx-|

Main Riff 

e|---------------------------------|--------------------------------|
B|---------------------------------|--------------------------------|
G|-4-44-4--------------------------|4-xxxx--------------------------|
D|-4-44-42-2-222226-66-6-2-2-22222-|4-xxxx2-2-2222-4-xxxxxxxxxxxxxx-|
A|-2-22-22-2-222226-66-6-2-2-22222-|2-xxxx2-2-2222-4-xxxxxxxxxxxxxx-|
E|-------0-0-000004-44-4-0-0-00000-|------0-0-0000-2-xxxxxxxxxxxxxx-|

verse 2

I broke a mirror to the past...

e|------------------------------------||
B|------------------------------------||
G|-4-4-4444------------------9-9-9999-|| (x2)
D|-4-4-44442-2-2222-6-6-6666-x-x-xxxx-||
A|-2-2-22222-2-2222-6-6-6666-7-7-7777-||
E|---------0-0-0000-4-4-4444-0-0-0000-||

Pre-Chorus

More regrets, Short of no correction

e|--------------------------||
B|--------------------------||
G|---------44444444---------|| (x2)
D|-6-6-2-2-4444444444444444-||
A|-6-6-2-2-2222222244444444-||
E|-4-4-0-0---------22222222-||

The iron lung collapsed...

e|-------------------------------------------|
B|-------------------------------------------|
G|-------------------------------------------|
D|-----------------4-444444------------------|
A|-6-6666662-2222222-2222224-4444446-6666662-|
E|-4-4444440-000000--------2-2222224-4444440-|
     ......  ......  ......  ......  ......

Chorus

Confusion`s all i see..

e|---------------------------------|---------------------------------|
B|---------------------------------|---------------------------------|
G|-4-4-4-4-------------------------|4-4-4-4--------------------------|
D|-4-4-4-4-4-4-4-4-6-6-6-6-2-2-2-2-|4-4-4-4-4-4-4-4-6-6-6-6-2-xxxxxx-|
A|-2-2-2-2-4-4-4-4-6-6-6-6-2-2-2-2-|2-2-2-2-4-4-4-4-6-6-6-6-2-xxxxxx-|
E|---------2-2-2-2-4-4-4-4-0-0-0-0-|--------2-2-2-2-4-4-4-4-0-xxxxxx-|

Confusion`s all i see..

e|---------------------------------|---------------------------|
B|---------------------------------|---------------------------|
G|-4-4-4-4-------------------------|4-4-4-4--------------------|
D|-4-4-4-4-4-4-4-4-6-6-6-6-2-2-2-2-|4-4-4-4-4-4-4-4-6-6-6-6-2--|
A|-2-2-2-2-4-4-4-4-6-6-6-6-2-2-2-2-|2-2-2-2-4-4-4-4-6-6-6-6-2--|
E|---------2-2-2-2-4-4-4-4-0-0-0-0-|--------2-2-2-2-4-4-4-4-0--|

Post-Chorus

e|---------------|
B|---------------|
G|---------------|
D|--xxxxxxxxxxxx-|
A|-2xxxxxxxxxxxx-|
E|-2xxxxxxxxxxxx-|

Bridge

Dead end jobs, warnings signs...

e|---------------|---------------------------------|
B|---------------|---------------------------------|
G|---------------|-------------------------4-4-4-4-|
D|-6-6-2--6-6-2--|6-6-2-22-xxxxxxxxxxxxxxx-4-4-4-4-|
A|-6-6-2--6-6-2--|6-6-2-22-xxxxxxxxxxxxxxx-2-2-2-2-|
E|-4-4-0--4-4-0--|4-4-0-00-xxxxxxxxxxxxxxx---------|

e|-----------------|----------------|----------------|----------------|
B|-----------------|----------------|----------------|----------------|
G|-4-4-4-4-4-4-4-4-|----------------|----------------|----------------|
D|-4-4-4-4-4-4-4-4-|2-2-2-2-2-2-2-2-|6-6-6-6-6-6-6-6-|2-2-2-2-2-2-2-2-|
A|-2-2-2-2-2-2-2-2-|2-2-2-2-2-2-2-2-|6-6-6-6-6-6-6-6-|2-2-2-2-2-2-2-2-|
E|-----------------|0-0-0-0-0-0-0-0-|4-4-4-4-4-4-4-4-|0-0-0-0-0-0-0-0-|

If you listen carefully, you can hear a second guitar in here
Gtr2.
e|-----------------|----------------|7-7-7-7-7-7-7-7-|6-6-6-6-6-6-6-6-|
B|-----------------|----------------|----------------|----------------|
G|-----------------|----------------|4-4-4-4-4-4-4-4-|3-3-3-3-3-3-3-3-|
D|-----------------|----------------|----------------|----------------|
A|-----------------|----------------|----------------|----------------|
E|-----------------|----------------|----------------|----------------|

Gtr1.
e|-----------------|----------------|----------------|----------------|
B|-----------------|----------------|----------------|----------------|
G|-4-4-4-4-4-4-4-4-|----------------|----------------|----------------|
D|-4-4-4-4-4-4-4-4-|2-2-2-2-2-2-2-2-|----------------|----------------|
A|-2-2-2-2-2-2-2-2-|2-2-2-2-2-2-2-2-|----------------|----------------|
E|-----------------|0-0-0-0-0-0-0-0-|4-----4s6-----6s|7-------0-0-0-0-|

gtr.2
e|-7-7-7-7-7-7-7-7-|7-7-7-7-7-7-7-7-|7---------------|----------------|
B|-----------------|----------------|----------------|----------------|
G|-4-4-4-4-4-4-4-4-|4-4-4-4-4-4-4-4-|4---------------|----------------|
D|-----------------|----------------|----------------|----------------|
A|-----------------|----------------|----------------|----------------|
E|-----------------|----------------|----------------|----------------|

Bridge 2
Gtr1.

Together we stand, together we fall...

e|-----------------|----------------|----------------|----------------|
B|-----------------|----------------|----------------|----------------|
G|-4-4-4-4-4-4-4-4-|----------------|----------------|----------------|
D|-4-4-4-4-4-4-4-4-|4-4-4-4-4-4-4-4-|6-6-6-6-6-6-6-6-|2-2-2-2-2-2-2-2-|(x4)
A|-2-2-2-2-2-2-2-2-|4-4-4-4-4-4-4-4-|6-6-6-6-6-6-6-6-|2-2-2-2-2-2-2-2-|
E|-----------------|2-2-2-2-2-2-2-2-|4-4-4-4-4-4-4-4-|0-0-0-0-0-0-0-0-|

e|-7-7-7-7-7-7-7-7-|6-6-6-6-6-6-6-6-|7-7-7-7-7-7-7-7-|7-7-7-7-7-7-7-7-|
B|-----------------|----------------|----------------|----------------|
G|-4-4-4-4-4-4-4-4-|3-3-3-3-3-3-3-3-|4-4-4-4-4-4-4-4-|4-4-4-4-4-4-4-4-|
D|-----------------|----------------|----------------|----------------|
A|-----------------|----------------|----------------|----------------|
E|-----------------|----------------|----------------|----------------|

and then...
Gtr.1
e|-----------------|----------------|----------------|----------------|
B|-----------------|----------------|----------------|----------------|
G|-4-4-4-4-4-4-4-4-|4(let ring)-----|4-4-4-4-4-4-4-4-|4-(lets ring)---|
D|-----------------|----------------|----------------|----------------|
A|-2-2-2-2-2-2-2-2-|2---------------|2-2-2-2-2-2-2-2-|2---------------|
E|-----------------|----------------|----------------|----------------|

e|-----------------|----------------|----------------|----------------|
B|-----------------|----------------|----------------|----------------|
G|-4-4-4-4-4-4-4-4-|4-4-4-4-4-4-4-4-|4-4-4-4-4-4-4-4-|4-4-4-4-4-4-4444|
D|-4-4-4-4-4-4-4-4-|4-4-4-4-4-4-4-4-|4-4-4-4-4-4-4-4-|4-4-4-4-4-4-4444|
A|-2-2-2-2-2-2-2-2-|2-2-2-2-2-2-2-2-|2-2-2-2-2-2-2-2-|2-2-2-2-2-2-2222|
E|-----------------|----------------|----------------|----------------|
   . . . . . . . .  . . . . . . . .  . . . . . . . .  . . . . 

In here it enters a second guitar with lots of effects and things that is more or less like this..
Gtr.2
e|-----------------|----------------|----------------|-----------------|
B|-4-4-4-4-4-4-4-4-|2-2-2-2-2-2-2-2-|5-5-5-5-5-5-5-5-|4-4-4-4-4-4-4-2--|
G|-4-4-4-4-4-4-4-4-|4-4-4-4-4-4-4-4-|4-4-4-4-4-4-4-4-|4-4-4-4-4-4-4-4--|
D|-----------------|----------------|----------------|-----------------|
A|-----------------|----------------|----------------|-----------------|
E|-----------------|----------------|----------------|-(pickslide here-|

Chorus

Confusion`s all i see..

e|---------------------------------|--------------------------------|
B|---------------------------------|--------------------------------|
G|-4-4-4-4-------------------------|4-4-4-4-------------------------|
D|-4-4-4-4-4-4-4-4-6-6-6-6-2-2-2-2-|4-4-4-4-4-4-4-4-6-6-6-6-2-2-2-2-|(x4)
A|-2-2-2-2-4-4-4-4-6-6-6-6-2-2-2-2-|2-2-2-2-4-4-4-4-6-6-6-6-2-2-2-2-|
E|---------2-2-2-2-4-4-4-4-0-0-0-0-|--------2-2-2-2-4-4-4-4-0-0-0-0-|

Outro
Gtr.1
e|----------------|----------------|----------------|----------------|
B|----------------|----------------|----------------|----------------|
G|-44-444-444-444-|444-444-444-444-|444-444-444-444-|444-444-444-444-|
D|-44-444-444-444-|444-444-444-444-|444-444-444-444-|444-444-444-444-|
A|-22-222-222-222-|222-222-222-222-|222-222-222-222-|222-222-222-222-|
E|----------------|----------------|----------------|----------------|

Gtr2.

e|-7777777777777777|7777777777777777|7777777777777777|7777777777777777|
B|-----------------|----------------|----------------|----------------|
G|-4444444444444444|4444444444444444|4444444444444444|4444444444444444|
D|-----------------|----------------|----------------|----------------|
A|-----------------|----------------|----------------|----------------|
E|-----------------|----------------|----------------|----------------|

Gtr.1
e|----------------|----------------|----------------|----------------|
B|----------------|----------------|----------------|----------------|
G|-44-444-444-444-|444-444-444-444-|xxxxxxxxxxxxxxxx|xxxxxxxxxxxxxxxx|
D|-44-444-444-444-|444-444-444-444-|xxxxxxxxxxxxxxxx|xxxxxxxxxxxxxxxx|
A|-22-222-222-222-|222-222-222-222-|xxxxxxxxxxxxxxxx|xxxxxxxxxxxxxxxx|
E|----------------|----------------|----------------|----------------|

Gtr2.

e|-7777777777777777|7777777777777777|
B|-----------------|----------------|
G|-4444444444444444|4444444444444444|
D|-----------------|----------------|
A|-----------------|----------------|
E|-----------------|----------------|

Gtr.3
e|-----------------|----------------|
B|-4-4-5-5-7-7-5-5-|4-4-5-5-7-7-5-5-|
G|--4-4-4-4-4-4-4-4|-4-4-4-4-4-4-4-4|
D|-----------------|----------------|
A|-----------------|----------------|
E|-----------------|----------------|

Ends On
e|---
B|---
G|-4-
D|-4-
A|-2-
E|---
Tap to rate this tab
# A B C D E F G H I J K L M N O P Q R S T U V W X Y Z