Song name
# A B C D E F G H I J K L M N O P Q R S T U V W X Y Z

Sunny Day Real Estate - Song About An Angel tab

From the Dairy Album.
Played in D tuning (regular tuned one step down)
This should be at least 95 % right. Please send any corrections to zzott@live.se



                       Intro

Riff 1
d|---------------------------------------------------------------|
A|--<5>------------------<5>----------------<5>-------------<5>--|
F|--<5>------------------<5>----------------<5>----------<5>-----|
C|---x--------------------x------------------x-------------------| 
G|---------------------------------------------------------------|
D|---------------------------------------------------------------|


                       Verse

Riff 2
d|--3~-----3-----3---3/5---3~------3----3---3/5--|
A|--3~-------3-----3-------3~--------3----3------|
F|--2~---------------------2~--------------------|
C|-----------------------------------------------|
G|-----------------------------------------------|
D|-----------------------------------------------|

d|--3~-----3---3---3/5---3~------3---3---5/7-7---|
A|--3~-------3---3-------3~--------3---3---------|
F|--2~-------------------2~----------------------|
C|-----------------------------------------------|
G|-----------------------------------------------|
D|-----------------------------------------------|



                       Whoo--oh hoo-ooh~

d|--3-3-3-3-3-3-3-3--3-3-3-3-3-3-3-3--3-3-3-3-3-3-3-3--3-3-3-3-3-3-3-3--|
A|--3-3-3-3-3-3-3-3--3-3-3-3-3-3-3-3--3-3-3-3-3-3-3-3--3-3-3-3-3-3-3-3--|
F|--0-0-0-0-0-0-0-0--2-2-2-2-2-2-2-2--0-0-0-0-0-0-0-0--0-0-0-0-0-0-0-0--|
C|--0-0-0-0-0-0-0-0--0-0-0-0-0-0-0-0--0-0-0-0-0-0-0-0--0-0-0-0-0-0-0-0--|
G|--2-2-2-2-2-2-2-2-------------------3-3-3-3-3-3-3-3--2-2-2-2-2-2-2-2--|
D|--3-3-3-3-3-3-3-3------------------------------------3-3-3-3-3-3-3-3--|



                       WORDS!
Guitar 1
d|-------------------------------------------------------------------|
A|-------------------------------------------------------------------|
F|--0-0---0-0---0-0---0-0-0---9-9-16-16-16--14-14-14-14-17-17-17-17--|
C|--0-0---0-0---0-0---0-0-0---x-x-x--x--x---x--x--x--x--x--x--x--x---|
G|--2-2---2-2---2-2---2-2-2---7-7-14-14-14--12-12-12-12-15-15-15-15--|
D|--3-3---3-3---3-3---3-3-3------------------------------------------|

Guitar 2
d|---------------------------------------------------------------|
A|---------------------------------------------------------------|
F|--0-0---0-0---0-0---0-0-0---0-0-0-0-0-0-0-0--0-0-0-0-0-0-0-0---|
C|--0-0---0-0---0-0---0-0-0---2-2-2-2-2-2-2-2--2-2-2-2-2-2-2-2---|
G|--2-2---2-2---2-2---2-2-2---2-2-2-2-2-2-2-2--2-2-2-2-2-2-2-2---|
D|--3-3---3-3---3-3---3-3-3---0-0-0-0-0-0-0-0--0-0-0-0-0-0-0-0---|



                       "You're married to that..."

d|--3-3-3-3-3-3-3-3--3-3-3-3-3-3-3-3--3-3-3-3-3-3-3-3--3-3-3-3-3-3-3-3--|
A|--3-3-3-3-3-3-3-3--3-3-3-3-3-3-3-3--3-3-3-3-3-3-3-3--3-3-3-3-3-3-3-3--|
F|--0-0-0-0-0-0-0-0--2-2-2-2-2-2-2-2--0-0-0-0-0-0-0-0--0-0-0-0-0-0-0-0--|
C|--0-0-0-0-0-0-0-0--0-0-0-0-0-0-0-0--0-0-0-0-0-0-0-0--0-0-0-0-0-0-0-0--|
G|--2-2-2-2-2-2-2-2-------------------3-3-3-3-3-3-3-3--2-2-2-2-2-2-2-2--|
D|--3-3-3-3-3-3-3-3------------------------------------3-3-3-3-3-3-3-3--|



                       "Running blind..."

d|--3-3-3-3-3-3-3-3--3-3-3-3-3-3-3-3--3-3-3-3-3-3-3-3--3-3-3-3-3-3-3-3--|
A|--3-3-3-3-3-3-3-3--3-3-3-3-3-3-3-3--3-3-3-3-3-3-3-3--3-3-3-3-3-3-3-3--|
F|--0-0-0-0-0-0-0-0--2-2-2-2-2-2-2-2--0-0-0-0-0-0-0-0--0-0-0-0-0-0-0-0--|
C|--2-2-2-2-2-2-2-2--0-0-0-0-0-0-0-0--0-0-0-0-0-0-0-0--0-0-0-0-0-0-0-0--|
G|--2-2-2-2-2-2-2-2-------------------2-2-2-2-2-2-2-2--0-0-0-0-0-0-0-0--|
D|--0-0-0-0-0-0-0-0-------------------3-3-3-3-3-3-3-3--2-2-2-2-3-3-2-2--|



                       Post-chorus

d|--3----------------3-----------------3-------------------------|
A|--3----------------3-----------------3-------------------------|
F|--0----------------0-----------------2-------------------------|
C|--0----------------0-----------------0---------3-5-3-----------|
G|--2----------------2-------------------------------------------|
D|--3------------------------------------------------------------|


Guitar 2
d|---------------------------------------------------------------|
A|---------------------------------------------------------------|
F|--19---------------18-----------------17-----------------------|
C|--x----------------x------------------x------------------------|
G|--17---------------16-----------------15-----------------------|
D|---------------------------------------------------------------|


                       Verse 2

Guitar 1
d|--3~-----3-----3---3/5---3~------3----3---3/5----|
A|--3~-------3-----3-------3~--------3----3--------|
F|--2~---------------------2~----------------------|
C|-------------------------------------------------|
G|-------------------------------------------------|
D|-------------------------------------------------|

d|--3~-----3---3---3/5-----3~------3---3---5/7-7---|
A|--3~-------3---3---------3~--------3---3---------|
F|--2~---------------------2~----------------------|
C|-------------------------------------------------|
G|-------------------------------------------------|
D|-------------------------------------------------|


Guitar 2
d|--3~---------------------3~--------------------|
A|--3~---------------------3~--------------------|
F|--0~---------------------0~--------------------|
C|--0~---------------------0~--------------------|
G|--2----------------------0~--------------------|
D|--3----------------------2~--------------------|

d|--3~---------------------3~--------------------|
A|--3~---------------------3~--------------------|
F|--0~---------------------0~--------------------|
C|--0~---------------------2~--------------------|
G|--2~---------------------0~--------------------|
D|-----------------------------------------------|



                       Outro

Guitar 1
d|--3------------3---------------------3-------------------3-----|
A|--3------------3---------------------3-------------------3-----|
F|--0------------2---------------------0-------------------0-----|
C|--0------------0---------------------0-------------------0-----|
G|--2----------------------------------2-------------------2-----|
D|--3------------------------------------------------------3-----|


                       Guitar 2
d|---------------------------------------------------------------|
A|---------------------------------------------------------------|
F|--19------------18-------------------17------------------------|
C|--x-------------x--------------------x-------------------------|
G|--17------------16-------------------15---------17/21--21~-----|
D|---------------------------------------------------------------|



Legacy:
x = Mute
~ = Let ring
 = Harmonic
/ = Slide
Tap to rate this tab
# A B C D E F G H I J K L M N O P Q R S T U V W X Y Z