Song name
# A B C D E F G H I J K L M N O P Q R S T U V W X Y Z

Sunset Rubdown - Up On Your Leopard Upon The End Of Your Feral Days tab

"Up on Your Leopard, Upon the End of Your Feral Days"
Sunset Rubdown

by Kevin L.

(Note: Jordan seems to play the intro riff starting on the 9th fret on the B string
something like this:
----------------------------------|
--9---7---------------------------|
---------9---8--6--8--9--8--6-----|
-------------------------------9--|
----------------------------------|
----------------------------------|

--------------------------------------------------------------------|
--9---7-------------------------8--7-----------------8--7-----------|
---------9---8--6---9-----8--9--------9--8-----8--9--------9--8-----|
-----------------------9--------------------9--------------------9--|
--------------------------------------------------------------------|
--------------------------------------------------------------------|

...But I find it easier to switch from the intro riff to the
E chord straight into the first verse if you start on the 4th fret of the
e string, something like this:

Intro Riff:
--4---2---------------------------|
---------5---4--2--4--5--4--2--0--|
----------------------------------|
----------------------------------|
----------------------------------|
----------------------------------|

--4---2-------------------------3--2-----------------3--2-----------|
---------5---4--2---5--0--4--5--------5--4--0--4--5--------5--4--0--|
--------------------------------------------------------------------|
--------------------------------------------------------------------|
--------------------------------------------------------------------|
--------------------------------------------------------------------|

--4---2---------------------------|
---------5---4--2--4--5--4--2--0--|
----------------------------------|
----------------------------------|
----------------------------------|
----------------------------------|

--4---2-------------------------3--2-----------------3--2-----------|
---------5---4--2---5--0--4--5--------5--4--0--4--5--------5--4--0--|
--------------------------------------------------------------------|  E
--------------------------------------------------------------------|
--------------------------------------------------------------------|
--------------------------------------------------------------------|

E
You're the one who ran in the wild cause
You're the one the wild called
And you're the one who followed the child
To save the sun from how it falls


E
You're the one who had knives
     C/G
set aside for the throats of hunters
            D
but they tricked you
                      E
with a trinket and a name


F
And I'm the one who sat at your capture
and I'm the one who whispered low
"that's the one who followed the child
to save the sun... and look...
                  E         E
it's starting to snow


 E
wah-ah-oh oh-oh-oh-oh-oh-oh-oh
 A                 E
wah-ah-oh oh-oh-oh-oh


 E
wah-ah-oh oh-oh-oh-oh-oh-oh-oh
 A                 E
wah-ah-oh oh-oh-oh-oh


 F                                         Am
You're the one who's riding around on a leopard
 F                                            Am
You're the one who's throwing the shit in the air
 F                                    C
You're the one whose wild hide will weather in the weathering days
        Am                                    G
To a leather made for princes to lay their princely head of hairs
          F
upon the end of your feral days
         Am
upon the end of your feral days
          C
upon the end of your feral days
            E           E
oh-oh-oh-oh ohhhhhhh


  E                                    G#m
You're the one who ran in the wild, a virgin to a name
  A                                  E
You're the one who lived off a forsaken land
 E
I'm the one who sat at your capture
    G#m
and let the snow fall on this whispering rapture
      A                                   E
and you're the one who's kissing your captor's hands


      E                  B
Well shit, I know we're all growing old
                     G#m
and where there is a will, there is a way
    F#
so, way to go
               E
but say-ay goodbye to your feral days
           G#m
say-ay goodbye to your feral days
               B              Eb
say-ay-ay goodbye-ay-ay ay-ay-ay-ay


 Eb                                       Cm
You're the one who's running around on a leopard,  ba-da-dam
 Eb                                             Cm
you're the one who's throwing dead birds in the air
  Eb                                 Cm
you're the one whose wild hide will weather in the weathering days
       Eb                                         Cm
To a leather made soft for princes to lay their princely head of hairs


Bb-G#
Bb-G#


        Bb
Say goodbye
        G#
Say goodbye to your feral days
        Bb          G#
Say goobye-ay-ay-ay-ay


 Eb                                     Cm
      You're highness is holding your chains

You're highness is holding your chains
         Eb
You're highness is holding your chains
                     Cm
You're highness is holding your chains
                                  Eb
You're highness is holding your chains

You're highness is holding your chains
         Cm
You're highness is holding your chains
                     Eb
You're highness is holding your chains
                             Cm
You're highness is holding youuuuuu're chains
Tap to rate this tab
# A B C D E F G H I J K L M N O P Q R S T U V W X Y Z