Song name
# A B C D E F G H I J K L M N O P Q R S T U V W X Y Z

Supergrass - Alright tab

Intro:  D 
 
 
Verse 1: 
 
        D  
We are young, we run green 
  
Keep our teeth, nice and clean 
          Em                          D 
See our friend see the sights feel alright 
 
Verse 2: 
 
        D  
We wake up, we go out 
 
Smoke a fag, put it out 
          Em                           D             
See our friend, see the sights feel alright 
 
Bridge: 
 
F#m 
Are we like you 
   F  
I can't be sure 
        Em  
On the scene as she turns we are 
   A7 
Strange in our worlds 
 
Verse 3: 
 
        D 
We are young, We get by 
 
Can't go mad, ain't got time 
        Em                       D  
Sleep around if we like we're alright 
 
Verse 4: 
 
          D 
Got some cash, got some wheels 
 
Took it out, cross the fields 
         Em                       D 
Lost control, hit a wall we're alright 
 
Bridge: 
 
Verse 1: 
 
SOLO: 
 
E|---------------------------------------------------| 
B|---------------------------------------------------| 
G|----------------------------5b-5b-5b-3-3-----------| 
D|---------------0--3--5-5-3----------------5-3-5-3--| 
A|-----------1/3-------------------------------------| 
E|--153-3-3-----------------------------------------| 
 
E|-----------------------------------------------| 
B|-----------------------------------------------| 
G|--3-5b-5b--3-5b-5b--3-5b-5b--3-5b-5b--3-5b-5b--| 
D|-----------------------------------------------| 
A|-----------------------------------------------| 
E|-----------------------------------------------| 
 
E|--------------------------------------------------| 
B|--------------------------------------------------| 
G|--3-5b-5b-5b-5b-5b-5b-5b-5b-5b--5-5-3---3---------| 
D|------------------------------------------5----5--| 
A|--------------------------------------------------| 
E|--------------------------------------------------| 
 
E|-----------------------------------------| 
B|-----------------------------------------| 
G|-----9b11------9b11------9b11------9b11--| 
D|-7-9------7-9--------7-9-------7-9-------| 
A|-----------------------------------------| 
E|-----------------------------------------| 
 
E|-------------------------------------------------| 
B|-------------------------------------------------| 
G|-----7b9-----7b9-------9b11------9b11-9b11--7----| 
D|-7-9-----7-9------7-9--------7-9--------------9--| 
A|-------------------------------------------------| 
E|-------------------------------------------------| 
 
E|--------------------------------------------------------------------| 
B|--------------------------------------------------------------------| 
G|-11-12-12-12b14---11-12 12-12b14---11-12-12-12b14---11-12-12-12b14--| 
D|--------------------------------------------------------------------| 
A|--------------------------------------------------------------------| 
E|--------------------------------------------------------------------| 
 
E|---------------------------------------------------------------------| 
B|---------------------------------------------------------------------| 
G|--10-11-11-11b12---10-11-11-11b12---11-12-12-12b14---11-12-12-12b14--| 
D|---------------------------------------------------------------------| 
A|---------------------------------------------------------------------| 
E|---------------------------------------------------------------------| 
Tap to rate this tab
 
# A B C D E F G H I J K L M N O P Q R S T U V W X Y Z