Song name
# A B C D E F G H I J K L M N O P Q R S T U V W X Y Z

Supergrass - Road To Rouen tab

Help us improve GuitareTab! Take a short survey!
Road to Rouen
Supergrass

Intro:
|-----------------7--/--12-12-12-12-12--------------------------------------|
|-----------------7--/--12-12-12-12-12--------------------------------------|
|-----------------7--/--12-12-12-12-12--------------------------------------|
|--7p5----------------------------------------------------------------------|
|------7p5------------------------------------------------------------------|
|----------7--5-------------------------------------------------------------|

Chorus:                   note:these are 12's
|-7-7-7-75-7-7-7-7-7-7-7-75-7-7-7-7/12121212------------------|
|-7-7-7-75-7-7-7-7-7-7-7-75-7-7-7-7/12121212------------------|
|-7-7-7-75-7-7-7-7-7-7-7-75-7-7-7-7/12121212------------------|
|-------------------------------------------------------------|
|-------------------------------------------------------------|
|-------------------------------------------------------------|

second chorus thing:               2X then...........then..
|-0-0-0-0-------3-3------0-0-3-0-------|-----------------------------------------|
|-2-2-2-2-------3-3------0-0-3-2------o|------------------------15b------11b\----|
|-2-2-2-2--xxxx-0-0-xxxx-1-1-0-2-------|--7h9-7----------------------------------|
|-2-2-2-2--xxxx-0-0-xxxx-2-2-0-2-------|---------5h7\----------------------------|
|-0-0-0-0--xxxx-2-2-xxxx-2-2-2-0------o|-----------------------------------------|
|---------------3-3------0-0-3---------|-----------------------------------------|

Interlude:
|-7-7-7-7-7-7-7-79------------------------------------------------------|
|-7-7-7-7-7-7-7-79------------------------------------------------------|
|-7-7-7-7-7-7-7-79------------------------------------------------------|
|-----------------------------------------------------------------------|
|-----------------------------------------------------------------------|
|-----------------------------------------------------------------------|

Thats most of it, I'll tab the rest tommorow I'm tired.
Related for Road To Rouen tab