Song name
# A B C D E F G H I J K L M N O P Q R S T U V W X Y Z

Supergrass - Pumping On Your Stereo tab

============================================================================
Artist: Supergrass 
Song: Pumping On Your Stereo 

Tabbed by: Christian Bourne 
Tuning: Standard 
============================================================================
this tab is 100% correct it sounds perfect without a doubt 
============================================================================

Intro 

e|-----------------|-----------------|-----------------|-----------------|
B|-----------------|-----------------|-----------------|-----------------|
G|-----------------|-----------------|-----------------|-----------------|
D|-7~~~~~~~~~~~~~~~|-9~~~~~~~~~~~~~~~|-7~~~~~~~~~~~~~~~|-9~~~~~~~~~~~~~~~|
A|-----------------|-----------------|-----------------|-----------------|
E|-----------------|-----------------|-----------------|-----------------|
 
e|-----------------|-----------------|-----------------|-----------------|
B|-----------------|-----------------|-----------------|-----------------|
G|-----------------|-----------------|-----------------|-----------------|
D|-7~~~~~~~~~~~~~~~|-9~~~~~~~~~~~~~~~|-7~~~~~~~~~~~~~~~|-9~~~~~~~~~~~~~~~|
A|-----------------|-----------------|-----------------|-----------------|
E|-----------------|-----------------|-----------------|-----------------|
  D                 E                 D                  E    
e|-2-2-2-2-2-2-2-2-|-0-0-0-0-0-0-0-0-|-2-2-2-2-2-2-2-2-|-----------------|
B|-3-3-3-3-3-3-3-3-|-0-0-0-0-0-0-0-0-|-3-3-3-3-3-3-3-3-|-----------------|
G|-2-2-2-2-2-2-2-2-|-1-1-1-1-1-1-1-1-|-2-2-2-2-2-2-2-2-|-1-1-1-1-1-1-1-1-|
D|-0-0-0-0-0-0-0-0-|-2-2-2-2-2-2-2-2-|-0-0-0-0-0-0-0-0-|-2-2-2-2-2-2-2-2-|
A|-----------------|-2-2-2-2-2-2-2-2-|-----------------|-2-2-2-2-2-2-2-2-|
E|-----------------|-0-0-0-0-0-0-0-0-|-----------------|-0-0-0-0-0-0-0-0-|
  D                 E                 D                 E 
e|-2-2-2-2-2-2-2-2-|-0-0-0-0-0-0-0-0-|-2-2-2-2-2-2-2-2-|-----------------|
B|-3-3-3-3-3-3-3-3-|-0-0-0-0-0-0-0-0-|-3-3-3-3-3-3-3-3-|-----------------|
G|-2-2-2-2-2-2-2-2-|-1-1-1-1-1-1-1-1-|-2-2-2-2-2-2-2-2-|-1-1-1-1-1-1-1-1-|
D|-0-0-0-0-0-0-0-0-|-2-2-2-2-2-2-2-2-|-0-0-0-0-0-0-0-0-|-2-2-2-2-2-2-2-2-|
A|-----------------|-2-2-2-2-2-2-2-2-|-----------------|-2-2-2-2-2-2-2-2-|
E|-----------------|-0-0-0-0-0-0-0-0-|-----------------|-0-0-0-0-0-0-0-0-|

Verse 1 
 D                  E                 D                 E
e|-2-2-2-2-2-2-2-2-|-0-0-0-0-0-0-0-0-|-2-2-2-2-2-2-2-2-|-----------------|
B|-3-3-3-3-3-3-3-3-|-0-0-0-0-0-0-0-0-|-3-3-3-3-3-3-3-3-|-----------------|
G|-2-2-2-2-2-2-2-2-|-1-1-1-1-1-1-1-1-|-2-2-2-2-2-2-2-2-|-1-1-1-1-1-1-1-1-|
D|-0-0-0-0-0-0-0-0-|-2-2-2-2-2-2-2-2-|-0-0-0-0-0-0-0-0-|-2-2-2-2-2-2-2-2-|
A|-----------------|-2-2-2-2-2-2-2-2-|-----------------|-2-2-2-2-2-2-2-2-|
E|-----------------|-0-0-0-0-0-0-0-0-|-----------------|-0-0-0-0-0-0-0-0-|
  D                 E                 D                 E 
e|-2-2-2-2-2-2-2-2-|-0-0-0-0-0-0-0-0-|-2-2-2-2-2-2-2-2-|-----------------|
B|-3-3-3-3-3-3-3-3-|-0-0-0-0-0-0-0-0-|-3-3-3-3-3-3-3-3-|-----------------|
G|-2-2-2-2-2-2-2-2-|-1-1-1-1-1-1-1-1-|-2-2-2-2-2-2-2-2-|-1-1-1-1-1-1-1-1-|
D|-0-0-0-0-0-0-0-0-|-2-2-2-2-2-2-2-2-|-0-0-0-0-0-0-0-0-|-2-2-2-2-2-2-2-2-|
A|-----------------|-2-2-2-2-2-2-2-2-|-----------------|-2-2-2-2-2-2-2-2-|
E|-----------------|-0-0-0-0-0-0-0-0-|-----------------|-0-0-0-0-0-0-0-0-|

Pre-Chorus 
  F                 F                 A                 A 
e|-1-1-1-1-1-1-1-1-|-1-1-1-1-1-1-1-1-|-0-0-0-0-0-0-0-0-|-0-0-0-0-0-0-0-0-|
B|-1-1-1-1-1-1-1-1-|-1-1-1-1-1-1-1-1-|-2-2-2-2-2-2-2-2-|-2-2-2-2-2-2-2-2-|
G|-2-2-2-2-2-2-2-2-|-2-2-2-2-2-2-2-2-|-2-2-2-2-2-2-2-2-|-2-2-2-2-2-2-2-2-|
D|-3-3-3-3-3-3-3-3-|-3-3-3-3-3-3-3-3-|-2-2-2-2-2-2-2-2-|-2-2-2-2-2-2-2-2-|
A|-----------------|-----------------|-0-0-0-0-0-0-0-0-|-0-0-0-0-0-0-0-0-|
E|-----------------|-----------------|-----------------|-----------------|

Chorus 
  D                 E                 D                 E 
e|-2-2-2-2-2-2-2-2-|-0-0-0-0-0-0-0-0-|-2-2-2-2-2-2-2-2-|-----------------|
B|-3-3-3-3-3-3-3-3-|-0-0-0-0-0-0-0-0-|-3-3-3-3-3-3-3-3-|-----------------|
G|-2-2-2-2-2-2-2-2-|-1-1-1-1-1-1-1-1-|-2-2-2-2-2-2-2-2-|-1-1-1-1-1-1-1-1-|
D|-0-0-0-0-0-0-0-0-|-2-2-2-2-2-2-2-2-|-0-0-0-0-0-0-0-0-|-2-2-2-2-2-2-2-2-|
A|-----------------|-2-2-2-2-2-2-2-2-|-----------------|-2-2-2-2-2-2-2-2-|
E|-----------------|-0-0-0-0-0-0-0-0-|-----------------|-0-0-0-0-0-0-0-0-|

Verse 2 
  D                 E                 D                 E 
e|-2-2-2-2-2-2-2-2-|-0-0-0-0-0-0-0-0-|-2-2-2-2-2-2-2-2-|-----------------|
B|-3-3-3-3-3-3-3-3-|-0-0-0-0-0-0-0-0-|-3-3-3-3-3-3-3-3-|-----------------|
G|-2-2-2-2-2-2-2-2-|-1-1-1-1-1-1-1-1-|-2-2-2-2-2-2-2-2-|-1-1-1-1-1-1-1-1-|
D|-0-0-0-0-0-0-0-0-|-2-2-2-2-2-2-2-2-|-0-0-0-0-0-0-0-0-|-2-2-2-2-2-2-2-2-|
A|-----------------|-2-2-2-2-2-2-2-2-|-----------------|-2-2-2-2-2-2-2-2-|
E|-----------------|-0-0-0-0-0-0-0-0-|-----------------|-0-0-0-0-0-0-0-0-|

e|-2-2-2-2-2-2-2-2-|-0-0-0-0-0-0-0-0-|-2-2-2-2-2-2-2-2-|-----------------|
B|-3-3-3-3-3-3-3-3-|-0-0-0-0-0-0-0-0-|-3-3-3-3-3-3-3-3-|-----------------|
G|-2-2-2-2-2-2-2-2-|-1-1-1-1-1-1-1-1-|-2-2-2-2-2-2-2-2-|-1-1-1-1-1-1-1-1-|
D|-0-0-0-0-0-0-0-0-|-2-2-2-2-2-2-2-2-|-0-0-0-0-0-0-0-0-|-2-2-2-2-2-2-2-2-|
A|-----------------|-2-2-2-2-2-2-2-2-|-----------------|-2-2-2-2-2-2-2-2-|
E|-----------------|-0-0-0-0-0-0-0-0-|-----------------|-0-0-0-0-0-0-0-0-|

Pre-Chorus 2 
  F                 F                 A                 A 
e|-1-1-1-1-1-1-1-1-|-1-1-1-1-1-1-1-1-|-0-0-0-0-0-0-0-0-|-0-0-0-0-0-0-0-0-|
B|-1-1-1-1-1-1-1-1-|-1-1-1-1-1-1-1-1-|-2-2-2-2-2-2-2-2-|-2-2-2-2-2-2-2-2-|
G|-2-2-2-2-2-2-2-2-|-2-2-2-2-2-2-2-2-|-2-2-2-2-2-2-2-2-|-2-2-2-2-2-2-2-2-|
D|-3-3-3-3-3-3-3-3-|-3-3-3-3-3-3-3-3-|-2-2-2-2-2-2-2-2-|-2-2-2-2-2-2-2-2-|
A|-----------------|-----------------|-0-0-0-0-0-0-0-0-|-0-0-0-0-0-0-0-0-|
E|-----------------|-----------------|-----------------|-----------------|
  C                 C                 G                 G 
e|-0-0-0-0-0-0-0-0-|-0-0-0-0-0-0-0-0-|-3-3-3-3-3-3-3-3-|-3-3-3-3-3-3-3-3-|
B|-1-1-1-1-1-1-1-1-|-1-1-1-1-1-1-1-1-|-3-3-3-3-3-3-3-3-|-3-3-3-3-3-3-3-3-|
G|-0-0-0-0-0-0-0-0-|-0-0-0-0-0-0-0-0-|-0-0-0-0-0-0-0-0-|-0-0-0-0-0-0-0-0-|
D|-2-2-2-2-2-2-2-2-|-2-2-2-2-2-2-2-2-|-0-0-0-0-0-0-0-0-|-0-0-0-0-0-0-0-0-|
A|-3-3-3-3-3-3-3-3-|-3-3-3-3-3-3-3-3-|-2-2-2-2-2-2-2-2-|-2-2-2-2-2-2-2-2-|
E|-----------------|-----------------|-3-3-3-3-3-3-3-3-|-3-3-3-3-3-3-3-3-|

Chorus 
  D                 E                 D                 E 
e|-2-2-2-2-2-2-2-2-|-0-0-0-0-0-0-0-0-|-2-2-2-2-2-2-2-2-|-----------------|
B|-3-3-3-3-3-3-3-3-|-0-0-0-0-0-0-0-0-|-3-3-3-3-3-3-3-3-|-----------------|
G|-2-2-2-2-2-2-2-2-|-1-1-1-1-1-1-1-1-|-2-2-2-2-2-2-2-2-|-1-1-1-1-1-1-1-1-|
D|-0-0-0-0-0-0-0-0-|-2-2-2-2-2-2-2-2-|-0-0-0-0-0-0-0-0-|-2-2-2-2-2-2-2-2-|
A|-----------------|-2-2-2-2-2-2-2-2-|-----------------|-2-2-2-2-2-2-2-2-|
E|-----------------|-0-0-0-0-0-0-0-0-|-----------------|-0-0-0-0-0-0-0-0-|
  D                 E                 D                 E 
e|-2-2-2-2-2-2-2-2-|-0-0-0-0-0-0-0-0-|-2-2-2-2-2-2-2-2-|-----------------|
B|-3-3-3-3-3-3-3-3-|-0-0-0-0-0-0-0-0-|-3-3-3-3-3-3-3-3-|-----------------|
G|-2-2-2-2-2-2-2-2-|-1-1-1-1-1-1-1-1-|-2-2-2-2-2-2-2-2-|-1-1-1-1-1-1-1-1-|
D|-0-0-0-0-0-0-0-0-|-2-2-2-2-2-2-2-2-|-0-0-0-0-0-0-0-0-|-2-2-2-2-2-2-2-2-|
A|-----------------|-2-2-2-2-2-2-2-2-|-----------------|-2-2-2-2-2-2-2-2-|
E|-----------------|-0-0-0-0-0-0-0-0-|-----------------|-0-0-0-0-0-0-0-0-|

Verse 3 
  D                 E                 D                 E 
e|-2-2-2-2-2-2-2-2-|-0-0-0-0-0-0-0-0-|-2-2-2-2-2-2-2-2-|-----------------|
B|-3-3-3-3-3-3-3-3-|-0-0-0-0-0-0-0-0-|-3-3-3-3-3-3-3-3-|-----------------|
G|-2-2-2-2-2-2-2-2-|-1-1-1-1-1-1-1-1-|-2-2-2-2-2-2-2-2-|-1-1-1-1-1-1-1-1-|
D|-0-0-0-0-0-0-0-0-|-2-2-2-2-2-2-2-2-|-0-0-0-0-0-0-0-0-|-2-2-2-2-2-2-2-2-|
A|-----------------|-2-2-2-2-2-2-2-2-|-----------------|-2-2-2-2-2-2-2-2-|
E|-----------------|-0-0-0-0-0-0-0-0-|-----------------|-0-0-0-0-0-0-0-0-|
  D                 E                 D                 E 
e|-2-2-2-2-2-2-2-2-|-0-0-0-0-0-0-0-0-|-2-2-2-2-2-2-2-2-|-----------------|
B|-3-3-3-3-3-3-3-3-|-0-0-0-0-0-0-0-0-|-3-3-3-3-3-3-3-3-|-----------------|
G|-2-2-2-2-2-2-2-2-|-1-1-1-1-1-1-1-1-|-2-2-2-2-2-2-2-2-|-1-1-1-1-1-1-1-1-|
D|-0-0-0-0-0-0-0-0-|-2-2-2-2-2-2-2-2-|-0-0-0-0-0-0-0-0-|-2-2-2-2-2-2-2-2-|
A|-----------------|-2-2-2-2-2-2-2-2-|-----------------|-2-2-2-2-2-2-2-2-|
E|-----------------|-0-0-0-0-0-0-0-0-|-----------------|-0-0-0-0-0-0-0-0-|

Pre-Chorus 2 
  F                 F                 A                 A 
e|-1-1-1-1-1-1-1-1-|-1-1-1-1-1-1-1-1-|-0-0-0-0-0-0-0-0-|-0-0-0-0-0-0-0-0-|
B|-1-1-1-1-1-1-1-1-|-1-1-1-1-1-1-1-1-|-2-2-2-2-2-2-2-2-|-2-2-2-2-2-2-2-2-|
G|-2-2-2-2-2-2-2-2-|-2-2-2-2-2-2-2-2-|-2-2-2-2-2-2-2-2-|-2-2-2-2-2-2-2-2-|
D|-3-3-3-3-3-3-3-3-|-3-3-3-3-3-3-3-3-|-2-2-2-2-2-2-2-2-|-2-2-2-2-2-2-2-2-|
A|-----------------|-----------------|-0-0-0-0-0-0-0-0-|-0-0-0-0-0-0-0-0-|
E|-----------------|-----------------|-----------------|-----------------|
  C                 C                 G                 G 
e|-0-0-0-0-0-0-0-0-|-0-0-0-0-0-0-0-0-|-3-3-3-3-3-3-3-3-|-3-3-3-3-3-3-3-3-|
B|-1-1-1-1-1-1-1-1-|-1-1-1-1-1-1-1-1-|-3-3-3-3-3-3-3-3-|-3-3-3-3-3-3-3-3-|
G|-0-0-0-0-0-0-0-0-|-0-0-0-0-0-0-0-0-|-0-0-0-0-0-0-0-0-|-0-0-0-0-0-0-0-0-|
D|-2-2-2-2-2-2-2-2-|-2-2-2-2-2-2-2-2-|-0-0-0-0-0-0-0-0-|-0-0-0-0-0-0-0-0-|
A|-3-3-3-3-3-3-3-3-|-3-3-3-3-3-3-3-3-|-2-2-2-2-2-2-2-2-|-2-2-2-2-2-2-2-2-|
E|-----------------|-----------------|-3-3-3-3-3-3-3-3-|-3-3-3-3-3-3-3-3-|

Quiet Chorus [you dont play anything] 

e|-----------------|-----------------|-----------------|-----------------|
B|-----------------|-----------------|-----------------|-----------------|
G|-----------------|-----------------|-----------------|-----------------|
D|-----------------|-----------------|-----------------|-----------------|
A|-----------------|-----------------|-----------------|-----------------|
E|-----------------|-----------------|-----------------|-----------------|

e|-----------------|-----------------|-----------------|-----------------|
B|-----------------|-----------------|-----------------|-----------------|
G|-----------------|-----------------|-----------------|-----------------|
D|-----------------|-----------------|-----------------|-----------------|
A|-----------------|-----------------|-----------------|-----------------|
E|-----------------|-----------------|-----------------|-----------------|

Final Chorus 
  D                 E                 D                 E    
e|-2-2-2-2-2-2-2-2-|-0-0-0-0-0-0-0-0-|-2-2-2-2-2-2-2-2-|-----------------|
B|-3-3-3-3-3-3-3-3-|-0-0-0-0-0-0-0-0-|-3-3-3-3-3-3-3-3-|-----------------|
G|-2-2-2-2-2-2-2-2-|-1-1-1-1-1-1-1-1-|-2-2-2-2-2-2-2-2-|-1-1-1-1-1-1-1-1-|
D|-0-0-0-0-0-0-0-0-|-2-2-2-2-2-2-2-2-|-0-0-0-0-0-0-0-0-|-2-2-2-2-2-2-2-2-|
A|-----------------|-2-2-2-2-2-2-2-2-|-----------------|-2-2-2-2-2-2-2-2-|
E|-----------------|-0-0-0-0-0-0-0-0-|-----------------|-0-0-0-0-0-0-0-0-|
  D                 E                 D                 E 
e|-2-2-2-2-2-2-2-2-|-0-0-0-0-0-0-0-0-|-2-2-2-2-2-2-2-2-|-----------------|
B|-3-3-3-3-3-3-3-3-|-0-0-0-0-0-0-0-0-|-3-3-3-3-3-3-3-3-|-----------------|
G|-2-2-2-2-2-2-2-2-|-1-1-1-1-1-1-1-1-|-2-2-2-2-2-2-2-2-|-1-1-1-1-1-1-1-1-|
D|-0-0-0-0-0-0-0-0-|-2-2-2-2-2-2-2-2-|-0-0-0-0-0-0-0-0-|-2-2-2-2-2-2-2-2-|
A|-----------------|-2-2-2-2-2-2-2-2-|-----------------|-2-2-2-2-2-2-2-2-|
E|-----------------|-0-0-0-0-0-0-0-0-|-----------------|-0-0-0-0-0-0-0-0-|
  D                 E                 D                 E 
e|-2-2-2-2-2-2-2-2-|-0-0-0-0-0-0-0-0-|-2-2-2-2-2-2-2-2-|-----------------|
B|-3-3-3-3-3-3-3-3-|-0-0-0-0-0-0-0-0-|-3-3-3-3-3-3-3-3-|-----------------|
G|-2-2-2-2-2-2-2-2-|-1-1-1-1-1-1-1-1-|-2-2-2-2-2-2-2-2-|-1-1-1-1-1-1-1-1-|
D|-0-0-0-0-0-0-0-0-|-2-2-2-2-2-2-2-2-|-0-0-0-0-0-0-0-0-|-2-2-2-2-2-2-2-2-|
A|-----------------|-2-2-2-2-2-2-2-2-|-----------------|-2-2-2-2-2-2-2-2-|
E|-----------------|-0-0-0-0-0-0-0-0-|-----------------|-0-0-0-0-0-0-0-0-|
  D                 E                 D                 E 
e|-2-2-2-2-2-2-2-2-|-0-0-0-0-0-0-0-0-|-2-2-2-2-2-2-2-2-|-----------------|
B|-3-3-3-3-3-3-3-3-|-0-0-0-0-0-0-0-0-|-3-3-3-3-3-3-3-3-|-----------------|
G|-2-2-2-2-2-2-2-2-|-1-1-1-1-1-1-1-1-|-2-2-2-2-2-2-2-2-|-1-1-1-1-1-1-1-1-|
D|-0-0-0-0-0-0-0-0-|-2-2-2-2-2-2-2-2-|-0-0-0-0-0-0-0-0-|-2-2-2-2-2-2-2-2-|
A|-----------------|-2-2-2-2-2-2-2-2-|-----------------|-2-2-2-2-2-2-2-2-|
E|-----------------|-0-0-0-0-0-0-0-0-|-----------------|-0-0-0-0-0-0-0-0-|
  F                 A 
e|-1~~~~~~~~~~~~~~~|-0~~~~~~~~~~~~~~~|
B|-1~~~~~~~~~~~~~~~|-2~~~~~~~~~~~~~~~|
G|-2~~~~~~~~~~~~~~~|-2~~~~~~~~~~~~~~~|
D|-3~~~~~~~~~~~~~~~|-2~~~~~~~~~~~~~~~|
A|-----------------|-0~~~~~~~~~~~~~~~|
E|-----------------|-----------------|

============================================================================

Extra Bits 

the second guitar plays this through the whole song exept 
for the pre-choruses

e|-----------------|-----------------|
B|-7----8---7--8---|-9-9-10-xx-9-9-10|
G|-7----7---7--7---|-9-9--9-xx-9-9--9|
D|-7----9---7--9---|-9-9-11-xx-9-9-11|
A|-----------------|-----------------|
E|-----------------|-----------------|

and in the final chorus the second guitar improvises a solo in
this scale i think it's the A major scale 

e|---|-o-|---|-o-|
B|---|-o-|---|-o-|
G|-o-|---|-o-|---|
D|-o-|---|---|---|
A|-o-|---|---|-o-|
E|---|-o-|---|-o-|
      5F
============================================================================
lyrics:

Can you hear us pumping on your stereo?
Can you hear us pumping on your stereo?
Can you hear us pumping on your stereo?
Can you hear us pumping on your stereo?
Can you hear us pumping on your stereo?
Can you hear us pumping on your stereo?
Can you hear us pumping on your stereo?
Can you hear us pumping on your stereo?

Life is a cigarette, you smoke to the end
But if you rocket the middle bit
Then you burn all your friends
The wider your eyes, the bigger the lies, yes it's true

Can you hear us pumping on your stereo?
Can you hear us pumping on your stereo?

Take a look through your window now
You're all alone on the road
Well you'll burn all your bridges down
And now you're losing control
The wider your eyes, the bigger the lies, yes it's true
If you make a mistake where you couldn't relate to your groove, (yes, that's
True)

Can you hear us pumping on your stereo?
Can you hear us pumping on your stereo?
Can you hear us pumping on your stereo?
Can you hear us pumping on your stereo?

Well now that I've met you
And I love you as a friend
Yeah but your love is mogadon
Love is the end
Well, the wider your eyes, the bigger the lies, yes it's true
If you make a mistake well you couldn't relate to your groove, yes it's true

Can you hear us pumping on your stereo?
Can you hear us pumping on your stereo?
Can you hear us pumping on your stereo?
Can you hear us pumping on your stereo?
Can you hear us pumping on your stereo?
Can you hear us pumping on your stereo?
Can you hear us pumping on your stereo?
Can you hear us pumping on your stereo?
Can you hear us pumping on your stereo?
Can you hear us pumping on your stereo?
Can you hear us pumping on your stereo?
Can you hear us pumping on your stereo? 

============================================================================
well thats it any Questions or Suggestions Please leave a comment thanks 
============================================================================
|~ = let ring 
|x = mute note with left hand 
============================================================================
Tap to rate this tab
# A B C D E F G H I J K L M N O P Q R S T U V W X Y Z