Supergrass - Time tab

#----------------------------------PLEASE NOTE---------------------------------#
#This file is the author's own work and represents their interpretation of the #
#song. You may only use this file for private study, scholarship, or research. #
#------------------------------------------------------------------------------#
From:  David Gandy  
Subject:  Time by Supergrass.

This is a really super groove from the "I SOULD COCO" album.


                               Time  by SUPERGRASS

Riff A

E|----------------------------------------|
B|-------------------------------------=--|
G|----------2----------4---2--------------|
D|----------2----------2---2--------------|
A|---3-h4------x-x-x----------x-x-x-------|    (x = palm mutes)
E|----------------------------------------|

Riff B

E|-------------------------------------------------------------|
B|-------------------------------------------------------------|
G|---------2---2-2-2--4--2---------2-2-2--4-2-------------4-2--|
D|---------2---4-4-4--2--2---------3-3-3--1-1-------------2-2--|
A|--3-h4---- --4-4-4--4--4---------3-3-3--3-3------------------|
E|-------------2-2-2-------2-2-2---1-1-1--1-1-0-1-2-3-4-0------|


INTRO:

Riff A   x8

VERSE: Riff A    
The time is on the way
My love
I know I'm going away
My love


CHORUS:
Riff B 
Yeah, I know what I, I see

Riff A   
Have it all you

Riff B 
Yeah, I know what I, I see

Riff A   
Have it all

Listen to the track to get the timing right
“Get the groove right and you’ll play it all night.”

Gandyman2@ntlworld.com
Tap to rate this tab
 
# A B C D E F G H I J K L M N O P Q R S T U V W X Y Z