Guitaretab - guitar tabs
Song name
# A B C D E F G H I J K L M N O P Q R S T U V W X Y Z

Switches - Testify tab

Highlighted       Show chord diagrams
-------------------------------------------------------------------------------
			     Testify - Switches
-------------------------------------------------------------------------------
Tabbed by:Maxxx
Email:slevin_89@hotmail.co.uk

Tuning:Standard (eBGDAE)


Chords Used In This Song:
       G     E     B    G#m    F#    Bm    C     D    Bb    Em7  Am7 Eb7   C7 
-------------------------------------------------------------------------------
 e|----3-----0-----2-----4-----2-----2-----0-----3-----1-----0----0----3----0|
 B|----3-----0-----4-----4-----2-----3-----1-----2-----3-----0----2----2----1|
 G|----0-----1-----4-----4-----3-----4-----0-----3-----3-----1----0----3----3|
 D|----0-----2-----4-----6-----4-----4-----2-----0-----3-----0----2----1----2|
 A|----2-----2-----2-----6-----4-----2-----3-----x-----1-----2----0----x----3|
 E|----3-----0-----x-----4-----2-----x-----x-----x-----x-----0----x----x----x|

Verse 1

G                        E
I really like to see ya, wouldn't want to be ya
G                             E
Your picture in my wallet as there before i got it
B                         G#m
Monday Slipped inside my world
E             F#    E     F#            Bm        C              D
Stay close to me, sporadically; i was selling my thoughts to the night
[ Tab from: http://www.guitaretab.com/s/switches/156567.html ]
Chorus

   Bb   G                   B  C       B  Bb    G     B   C   B
I dont care what ya say cus i won't testify my love 
   Bb   G                   B  C       B  Bb    G     B   C   B   Bb
I dont care what ya do, cus i won't testify my love 

Verse 2(same pattern as before)

Even though i know ya, i wouldn't want to show ya
Take away my heart again; leave me with a cold brain
Tuesday slipped inside my world
Depression on me, consecutively, i was selling my thoughts to the night

Chorus and outro

   Bb   G                   B  C      B  Bb    G     B   C   B
I dont care what ya say cus i wont testify my love
   Bb   G                   B  C      B  Bb    G     B   C   B   Am7
i dont care what ya do, cus i wont testify my love
         Bb      C      G                  Bb      C     G  
Yeah cus i dont wanna testify, testify, so i'm not gonna testify, testify
Bb      Am7        Eb7            C7
I'm too high to testify, testify, testify-hi



Thats all of it right there so i think it sounds fairly accurate but plz e-mail me with any correction thx
Related for Testify tab