Song name
# A B C D E F G H I J K L M N O P Q R S T U V W X Y Z

Switches - Drama Queen tab

-------------------------------------------------------------------------------
			     DRAMA QUEEN - Switches
-------------------------------------------------------------------------------
Tabbed by: The Impaler
Email:harriso64@hotmail.com

Tuning: Standard

Lead;

e|----------------------------------|
B|--4--1-----1--------1--4--1-----1-|
G|--------3-----0--3-----------3----| (x3)
D|----------------------------------|
A|----------------------------------|
E|----------------------------------|

e|----------------------|
B|--4--1-----1--------1-|
G|--------3-----0--3----|
D|----------------------|
A|----------------------|
E|----------------------|

Rhythm;

e|--------------|
B|--------------|
G|---5--5--7--5-| Repeated
D|---5--5--7--5-|
A|---3--3--3--3-|
E|--------------|

Tap to rate this tab
 
# A B C D E F G H I J K L M N O P Q R S T U V W X Y Z