Song name
# A B C D E F G H I J K L M N O P Q R S T U V W X Y Z

Switchfoot - Loser tab

    Artist:Switchfoot
    Album:Learning to Breathe
    Tabbed by:Joshua Leon

   The first version only had the intro and the first part of the chorus.Here's
 the whole thing.


      Intro
    e|--------------------------------------------------|
    B|--------------------------------------------------|
    G|---13b----------13b----------13b----------13b-----|
    D|--------------------------------------------------|
    A|-11~~~9-99-11-11~~~7-77-11-11~~~9-99-11-11~~~7-77-|
    E|--0~~~7-77--9--9~~~5-55--0--0~~~7-77--9--9~~~5-55-|
     (Drums and bass come in.After strumming the last time slide to 11 on A.)
    e|----------------------------------------------|
    B|----------------------------------------------|
    G|---13b----------13b----------13b--------------|
    D|-------------------------------------66666666-|
    A|-11~~~9-99-11-11~~~7-77-11-11~~~9-99-66666666-|
    E|--0~~~7-77--9--9~~~5-55--0--0~~~7-77-44444444-|

      Verse 1(play 2x)
    e|-xxx-4~4-------------------------|
    B|-xxx-5~5-4~4-0~0-2~2-5~5-7~7-4~4-|
    G|-xxx-6~6-5~5-1~1-3~3-6~6-8~8-5~5-|
    D|-xxx-6~6-6~6-2~2-4~4-7~7-9~9-6~6-|
    A|-xxx-4~4-6~6-2~2-4~4-7~7-9~9-6~6-|
    E|---------4~4-0~0-2~2-5~5-7~7-4~4-|
      Only the losers win/Cause they've got nothing to prove/They'll leave this world 
nothing to lose/You can laugh at the weirdos now/Wait till their wrongs are right/They'll 
this world with nothing to hide
      Pre-Chorus
    e|----------------------------|
    B|----------------------------|
    G|----------------------------|
    D|-99-999-77-777-99-999-77-99-|
    A|-99-999-77-777-99-999-77-99-|
    E|-77-777-55-555-77-777-55-77-|
      Cause I've been thinking/Thinking..
      Chorus 1(2x)                Then...(3x)     Then..
    e|---------------------------|---------------|---|
    B|---------------------------|---------------|---|
    G|------13b----------13b-----|---------------|---|
    D|---------------------------|-77-777-99-999-|-2~|
    A|-11-11~~~9-99-11-11~~~7-77-|-77-777-99-999-|-2~|
    E|--0--0~~~7-77--9--9~~~5-55-|-55-555-77-777-|-0~|
      I've got a plan to lose it all/I've got a contract pending on eternity/If I 
already given it away/I've got a plan to lose it all
      Verse 2
     I've been the burnout kid/I've been the idiot/I'll turn the other cheek to be 
can take what you want from me/Empty me till I'm depleted/I'll be around if I'm never needed
      Pre-Chorus
      Chorus 1
      Bridge(Bass then)
    e|--------------------------------------------|
    B|--------------------------------------------|
    G|-12b12b12b12b12b------------15b15b15b15b15b-|
    D|--------------------------------------------|
    A|--------------------------------------------|
    E|--------------------------------------------|
      Verse 3(just singing)
     I wrote this song for you/To show how I'm selling oet/I'l take the benefit of the doubt
      Pre-Chorus
      Chorus 2(2x)
    e|-----------------------------------------------------|
    B|-----------------------------------------------------|
    G|------13b----------13b----------13b----------13b-----|
    D|-----------------------------------------------------|
    A|-11-11~~~-----11-11~~~7-77-11-11~~~9-99-11-11~~~7-77-|
    E|--0--0~~~------9--9~~~5-55--0--0~~~7-77--9--9~~~5-55-|
      I've got a plan to lose it all/I've got a contract pending on eternity
      Then...(3x)     Then...
    e|---------------|----------------------------------------------------|
    B|---------------|----------------------------------------------------|
    G|---------------|----------------------------------------------------|
    D|-77-777-99-999-|-66-6-6-6-6-6-6-77-777-99-999-55-5-5-5-5-5-5-77~99~-|
    A|-77-777-99-999-|-66-6-6-6-6-6-6-77-777-99-999-55-5-5-5-5-5-5-77~99~-|
    E|-55-555-77-777-|-44-4-4-4-4-4-4-55-555-77-777-33-3-3-3-3-3-3-55~77~-|
      If I haven't already given it away/I've got a plan to to lose it all/I've got a 
to lose it all/I've got a plan to lose it all.

        That's all.God bless.
                          -Josh
Tap to rate this tab
 
# A B C D E F G H I J K L M N O P Q R S T U V W X Y Z