Song name
# A B C D E F G H I J K L M N O P Q R S T U V W X Y Z

Switchfoot - Playing For Keeps tab

***all 10,11,12,13,14's you might see are tens, elevens, twelves, etc., not one-zero's, 
and so forth.

Intro: guitar 1
e-0-0--0-00------0---0------0-0--0-00------0---0------>
B-0-0--0-00------0---0------0-0--0-00------0---0------>
G-6-6-+6-66-----13b-13b-----6-6-+6-66-----13b-13b----->
D-7-7-+7-77-99--14--14--99--7-7-+7-77-99--14--14--99-->
A-7-7-+7-77-99--14--14--99--7-7-+7-77-99--14--14--99-->
E-5-5-+5-55-77--12--12--77--5-5-+5-55-77--12--12--77-->

Verse 1: guitar 1
e----------------------------------------------------------->
B----------------------------------------------------------->
G----------9-------------9--------------9-------------9----->
D-1111-+9119-11-+6-7-7-679-7-9-1111-+9119-11-+6-7-7-679-7-9-> repeat
A-1111-+9117-11-+6-7-7-677-7-9-1111-+9117-11-+6-7-7-677-7-9->
E-9-9--+79---9--+4-5-5-45--5-7-9-9--+79---9--+4-5-5-45--5-7->
Do me a favor Would you sing this to me slow? 'Cause I'm thinking it's my
song Do me a favor Would you tell me when to let go? 'Cause I think I'm
holding on

Pre-chorus: guitar 2
e------------------------------------------------------------------>
B------------------------------------------------------------------>
G-----------------------------------6-6-6-6-6-6-6-8-8-8-8-++++++++->
D-5-5-5-5-5-5-5-5-10101010101010107-7-7-7-7-7-7-7-9-9-9-9-++++++++->
A-5-5-5-5-5-5-5-5-10101010101010107-7-7-7-7-7-7-7-9-9-9-9-++++++++->
E-3-3-3-3-3-3-3-3-8-8-8-8-8-8-8-8-5-5-5-5-5-5-5-5-7-7-7-7-++++++++->
Would you do it for me? 'Cause I'm playing for keeps

Chorus:
e-0-00-00-0-00-00-0-00-00-000-0-00-00-0-00-00-0-00-00-000-00000000-0-00-00->
B-0-00-00-0-00-00-0-00-00-000-0-00-00-0-00-00-0-00-00-000-00000000-0-00-00->
G-1-11-11-8-88-88-6-+6-+6-+66-1-11-11-8-88-88-6-+6-+6-+66-XXXXXXXX-8-88-88->
D-2-22-22-9-99-99-7-+7-+7-+77-2-22-22-9-99-99-7-+7-+7-+77-11111111-9-99-99->
A-2-22-22-9-99-99-7-+7-+7-+77-2-22-22-9-99-99-7-+7-+7-+77-11111111-9-99-99->
E-0-00-00-7-77-77-5-+5-+5-+55-0-00-00-7-77-77-5-+5-+5-+55-9-9-9-9--7-77-77->
Tell me tomorrow has come With open arms, open arms, open arms If you say
it's time to move

e-0-00-00-000-0-00-00-0-00-00-0-00-00-0~----------->
B-0-00-00-000-0-00-00-0-00-00-0-00-00-0~----------->
G-6-+6-+6-+66-1-11-11-8-88-88-6-66-66-8~----------->
D-7-+7-+7-+77-2-22-22-9-99-99-7-77-77-9~----------->
A-7-+7-+7-+77-2-22-22-9-99-99-7-77-77-9~----------->
E-5-+5-+5-+55-0-00-00-7-77-77-5-55-55-7~----------->
on Then I'll stop holding on holding on, If you say that it's time for
moving on

---REPEAT INTRO
yeah, Time for moving on yeah

verse 2: guitar 2
e-77-77-77-77-77777--77-77-77-77-77777--77-77-77-77-77777-->
B-55-55-55-55-55555--55-55-55-55-55555--55-55-55-55-55555-->
G-44-44-44-44-44444--44-44-44-44-44444--44-44-44-44-44444-->
D---------------------------------------------------------->
A---------------------------------------------------------->
E---------------------------------------------------------->
Do me a favor Would you tell me which way is up? 'Cause I don't know where
I fit do me a favor would you tell me when to stop? ‘Cause I don’t know how
to quit

---REPEAT PRE-CHORUS

---REPEAT CHORUS

bridge: guitar 1                       gt.2
e-000000000-0000000-000000-000000-0~---00000000000000000000000----->
B-000000000-0000000-000000-000000-0~---00000000000000000000000----->
G-444444444b4444444b444444b444444b4~---888888+8888++88888+8888++++->
D--------------------------------------999999+9999++99999+9999++++->
A--------------------------------------999999+9999++99999+9999++++->
E--------------------------------------777777+7777++77777+7777++++->
Do me a favor do me a favor 'Cause I'm playing for keeps

---REPEAT CHORUS

outro:
e-000000-0~-------->
B-000000-0~-------->
G-444444b4~-------->
D------------------>
A------------------>
E------------------>
(You said.. yeah.. etc.) time for moving on..
Tap to rate this tab
# A B C D E F G H I J K L M N O P Q R S T U V W X Y Z