Song name
# A B C D E F G H I J K L M N O P Q R S T U V W X Y Z

Switchfoot - Free tab

Switchfoot
Free
Hello Hurricane -- 2009

These are chords for Switchfoot's new song "Free" from their
upcoming album/release Hello Hurricane -- due out in November '09.

For now here is my acoustic tab.  I'll update this tab later though to included the 
version...

Tuning - Drop D (D A d G B E)

Intro
Guitar 1
E|-----------------------------------------------------|
B|-----------------------------------------------------|
G|--7-7-7-7-7-7-7-7--7-7-7-7-7-7-7-7--7-7-7-7-7-7-7-7--|
d|--x-x-x-x-x-x-x-x--0-0-0-0-0-0-0-0--0-0-0-0-0-0-0-0--|[2x]
A|--5-5-5-5-5-5-5-5--x-x-x-x-x-x-x-x--x-x-x-x-x-x-x-x--|
D|--0-0-0-0-0-0-0-0--8-8-8-8-8-8-8-8--5-5-5-5-5-5-5-5--|

Guitar 2
E|------------------|
B|------------------|
G|------------------|
d|--3---3-------5^--|[6x]
A|---h5--h5-3h5-----|
D|------------------|

Verse 1
    I've got my back against the wall,  but I still hear the blue sky call
E|-----------------------------------------------------|
B|-----------------------------------------------------|
G|--7---------------------------------7----------------|
d|--x---------------------------------0----------------|
A|--5---------------------------------x----------------|
D|--0---------------------------------8----------------|

            The chains that hold me back inside
E|-----------------------------------------------|
B|-----------------------------------------------|
G|--7--7--7--------------------------------------|
d|--0--0--0--------------------------------------|
A|--x--x--x--------------------------------------|
D|--8--7--5--------------------------------------|
       |-just one hit!

      Are the prisons of my mind
E|------------------------------|
B|------------------------------|
G|--7------------------------9--|
d|--0------------------------x--|
A|--x------------------------x--|
D|--8-----------------------10--|

Chorus - listen close for rhythm -- some hits are muted!
    Free, come set me free down on my knees
E|---------------------------------------|
B|---------------------------------------|
G|--7---------------------------------7--|
d|--0---------------------------------0--|
A|--0---------------------------------x--|
D|--0---------------------------------8--|

    I still believe you can save me from me
E|------------------------------------------|
B|------------------------------------------|
G|-------------2------------5------------7--|
d|-------------0------------5------------0--|
A|-------------x------------3------------x--|
D|-------------3-------------------------5--|

    Come set me free, I still believe
E|-------------------------------|
B|-------------------------------|
G|----------------------------7--|
d|----------------------------0--|
A|----------------------------x--|
D|----------------------------8--|
                                   Intro (Guitars 1 & 2)
Inside this shell there's a prison cell

Verse 2 - Same as V1
I try to live the light of day
Why would I do what I hate
But when try to reach above
I only I hurt the ones I love

Chorus

Bridge
    There's a hole in the neighborhood     where he shadows fall
    There's a hole in my  heart but my hope is not in me at all
E|-------------------------------------------------------------|
B|-------------------------------------------------------------|
G|---9--------------------4----------------7----------------2--|
d|---x--------------------0----------------0----------------0--|
A|---x--------------------x----------------x----------------x--|
D|--10--------------------5----------------8----------------3--|

    I had a dream that my chains were bro-ken, bro-ken, bro-ken o--pen!
E|--------------------------------------------------------------------|
B|-------------------------------------------------8---------------8--|
G|---9--------------------4-----------7---9----10--7----7---9--10--7--|
d|---x--------------------0-----------0---0-----0--0----0---0---0--0--|
A|---x--------------------x-----------x---x-----x--x----x---x---x--x--|
D|--10--------------------5-----------8---8-----8--8----8---8---8--8--|

Chorus

Outro - Same as Intro (Guitars 1 & 2)
Tap to rate this tab
 
# A B C D E F G H I J K L M N O P Q R S T U V W X Y Z