Song name
# A B C D E F G H I J K L M N O P Q R S T U V W X Y Z

Switchfoot - Bomb tab

   Artist:Switchfoot
   Album:The Legend of Chin
   Tabbed by:Joshua Leon

      So now after the 5th update, I'm 100% sure this is correct.

     Intro(base part on guitar)
   e|--------------------------------------------|
   B|--------------------------------------------|
   G|--------------------------------------------|
   D|-------------------0-1p0----------------0-1-|
   A|------------------1-----3~0-3-0-----3-0-----|
   D|-/7-10-7/1-3-1-0-3-------------1~1\2---2----|

     Guitar part
   e|------------------------------------|
   B|-----5~~~-----4~~~-----5------------|
   G|---54~45~----5~5~~---54~45---5----4-|
   D|--5~~~~~5---6~~~6~--5~~~~-----------|
   A|-3~~~~~~---6~~~~~6-3~~~~~---6~---5~~|
   E|----------4~~~~~~~~--------4~~4\3~~~|

     Verse 1(4x)
   e|-----------------------------------|-------------|
   B|-----------------------------------|-------------|
   G|-----------------------------------|-------------|
   D|-(7)++7-(6)++++6-(5)++++5-(3)++++3-|-55555-33333-|
   A|-(7)++7-(6)++++6-(5)++++5-(3)++++3-|-55555-33333-|
   E|-(5)++5-(4)++++4-(3)++++3-(1)++++1-|-33333-11111-|
     With blankness staring back at me/Screaming from the pages/I feel the fear of 
me /Pushing me/On top of everything/In the corner with a view/I turn off the florescent tubes

     Chorus
   e|-----------------------------------------------|
   B|-5~--------------------------------------------|
   G|-4~--------------------------------------------|
   D|-2~777\666666\555\333333-777\666666\555\333333-|
   A|-2~777\666666\555\333333-777\666666\555\333333-|
   E|---555\444444\333\111111-555\444444\333\111111-|

     Post-chorus 1(2x)
   e|----------3~|
   B|----------3~|
   G|-7-8--9\5-5~|
   D|-8-9-10\5-5~|
   A|-5-6--7\3-3~|
   E|------------|
     Verse
     2nd part(4x)
   e|--------------------------------------|
   B|--------------------------------------|
   G|-xx--9--9~xxxx-8-9-xxxx-7-7-xx-7-xx-8-|
   D|-xx-10-10~xxxx-9-8-xxxx-8-8-xx-8-xx-9-|
   A|-xx--7--7~xxxx-6-6-xxxx-5-5-xx-5-xx-6-|
   E|--------------------------------------|

   e|----------1-1-1-|
   B|----------1-1-1-|
   G|----------x-x-x-|
   D|-55555-55\3-3-3-|
   A|-55555-55\3-3-3-|
   E|-33333-33\1-1-1-|
     Chorus
     Post-Chorus
     Gtr. 1  Gtr.2                       (2x) Then...
   E|-------|--------------------------------------|----------------|
   B|-------|--------------------------------------|----------------|
   G|-7-8-9/|-xxxx--9-9-xxxx-8-8-xxxx-7-7-xx-7-8-9\|-12121212121212-|
   D|-8-910/|-xxxx-1010-xxxx-9-9-xxxx-8-8-xx-8-910\|-12121212121212-|
   A|-5-6-7/|-xxxx--7-7-xxxx-6-6-xxxx-5-5-xx-5-6-7\|-10101010101010-|
   E|-------|--------------------------------------|----------------|

   End(do palm mute until the part when he plays)
     
   E|---------------------------------------------------------------|
   B|---------------------------------------------------------------|
   G|-xxxx--9-9-xxxx-8-8-xx-777-55555--9-9-9-9-9-88888-77777-7-8--9~|
   D|-xxxx-1010-xxxx-9-9-xx-888-55555-1010101010-99999-88888-8-9-10~|
   A|-xxxx--7-7-xxxx-6-6-xx-555-33333--7-7-7-7-7-66666-55555-5-6--7~|
   E|---------------------------------------------------------------|
     Gtr 2
   E|-----------------------------------------------|
   B|-----5~~~------4~~~-----5~~~-------------------|
   G|---54~45~-----5~5~~---54~45~---5---4-9~9~9~9~9~|
   D|--5~~~~~5----6~~~6~--5~~~~~5---------9~9~9~9~9~|
   A|-3~~~~~~~---6~~~~~6-3~~~~~~~--6~--5~-7~7~7~7~7~|
   E|-----------4~~~~~~~----------4~~\3~~-----------|

     God bless.
            -Josh
Tap to rate this tab
 
# A B C D E F G H I J K L M N O P Q R S T U V W X Y Z