Switchfoot - Red Eyes tab

RED EYES
by SWITCHFOOT
from Hello Hurricane

Tuning : DROP D

ok i am not going to put up strumming patterns to this cuz it's pretty simple..
it's all in the song so listen to it if you are having trouble or something

INTRO /verse/outro
e-----------|
B-----------|
G---7---7---| just keep repeating
D---7---7---| this until.....
A---5---4---|
D-----------|

    i said i'm aiming for home
e-----------------------------|
B-----------------------------|
G- 4--------------------------|
D--4-----------7----------5---|
A--2-----------7----------5---|
D--------------7----------5---|

   holding on.. holding on..
e------------------|
B------------------|
G------------------|
D---2-----------5--|
A---2-----------5--|
D---2-----------5--|


CHORUS
With red eyes What are you looking for
With red eyes Red................eyes
e-----------------------------------|
B-----------------------------------|
G----5------------------------------|
D----7---5---9--------------------7-|
A----7---5---9--------------------7-|
D--------5---9--------------------7-|

Repeat the whole thing.


  Every now and then I see you dreaming
e-----------------------------------------|
B-----------------------------------------|
G-----------------------------------------|
D--9-------------4--------------5-------2-|
A--9-------------4--------------5-------2-|
D--9-------------4--------------5-------2-|

  Every now and then I see you cry
e------------------------------------|
B------------------------------------|
G------------------------------------|
D--9-------------4--------------5----|
A--9-------------4--------------5----|
D--9-------------4--------------5----|

  Every now and then I see you reaching
e-----------------------------------------|
B-----------------------------------------|
G--7--------------------------------------|
D--7------------4--------------5--------2-|
A--5------------4--------------5--------2-|
D---------------4--------------5--------2-|

  Reaching for the other side
e------------------------------------------|
B------------------------------------------|
G------------------------------------------|
D--4----------------------5----------------|
A--4----------------------5----------------|
D--4----------------------5----------------|

   What are you waiting for?
e----------------------|
B----------------------|
G----------------------|
D--5------------7------|
A--5------------7------|
D--5------------7------|

Chorus
Outro
Tap to rate this tab
 
# A B C D E F G H I J K L M N O P Q R S T U V W X Y Z