Song name
# A B C D E F G H I J K L M N O P Q R S T U V W X Y Z

Switchfoot - Meant To Live Acoustic tab

Switchfoot
Meant To Live [Acoustic]
The Beautiful Letdown -- 2003

Tuning - Drop D (D A D G B e)

Intro
E|-----------------------------------------------------|
B|-----------------------------------------------------|
G|-----------0-0-0-----------0-0-0---------------------|
D|-----------4/5\4-----------4/5\4--4-4-4h5-4-4-4h5-4--|
A|--2--2--2---------0--0--0---------2-2-2---2-2-2---2--|
D|----------------------------------2-2-2---2-2-2---2--|

E|---------------------------------------------0-0-0-0-0--|
B|---------------------------------------------0-0-0-0-0--|
G|-----------0-0-0-----------0-0-0-------------x-x-x-x-x--|
D|-----------4/5\4-----------4/5\4--4-4-4h5-4--7-7-7-7-7--|
A|--2--2--2---------0--0--0---------2-2-2---2--4-4-4-4-4--|
D|----------------------------------2-2-2---2--4-4-4-4-4--|

Verse 1 - 2x
E|-----------------------------------|
B|--0-0-0-0-0-0-0-0-0-0-0-0-0-0-0-0--|
G|--7-7-7-7-7-7-7-7-7-7-7-7-7-7-7-7--|
D|--7-7-7-7-7-7-7-7-7-7-7-7-7-7-7-7--|
A|--5-5-5-5-5-5-5-5-5-5-5-5-5-5-5-5--|
D|--5-5-5-5-5-5-5-5-5-5-5-5-5-5-5-5--|

E|----------------------------------------------------|
B|----------------------------------------------------|
G|----------------------------------------------------|
D|--4-----------4-----4/5\4--4-----------4-----4/5/7--|
A|--x--0--2--0--x--0--x-x-x--x--0--2--0--x--0--x-x-x--|
D|--4--0--2--0--4--0--4/5\4--4--0--2--0--4--0--4/5/7--|

Chorus
E|------------------------------------------------------|
B|------------------------------------------------------|
G|------------------------------------------------------|
D|--7-7-7--x-x-x--11--11--11--x-x-x--12--12--12--x-x-x--|
A|--5-5-5--x-x-x---7---7---7--x-x-x---9---9---9--x-x-x--|
D|--5-5-5--x-x-x---7---7---7--x-x-x---9---9---9--x-x-x--|
  
E|------------------------------------------------------|
B|------------------------------------------------------|
G|------------------------------------------------------|
D|--0h5-5-5--x-x-x--7-7-7-7--5-5-5-5--7-7-7-7--5-5-5-5--|
A|--0h2-2-2--x-x-x--5-5-5-5--2-2-2-2--5-5-5-5--2-2-2-2--|
D|--0h2-2-2--x-x-x--5-5-5-5--2-2-2-2--5-5-5-5--2-2-2-2--|

E|------------------------------------------------------|
B|------------------------------------------------------|
G|------------------------------------------------------|
D|--7-7-7--x-x-x--11--11--11--x-x-x--12--12--12--x-x-x--|
A|--5-5-5--x-x-x---7---7---7--x-x-x---9---9---9--x-x-x--|
D|--5-5-5--x-x-x---7---7---7--x-x-x---9---9---9--x-x-x--|
  
E|------------------------------------|
B|------------------------------------|
G|------------------------------------|
D|--0h5-5-5--x-x-x--7-7-7-7--5-5-5-5--|
A|--0h2-2-2--x-x-x--5-5-5-5--2-2-2-2--|
D|--0h2-2-2--x-x-x--5-5-5-5--2-2-2-2--|

Interlude
E|----------------------------------------------------------|
B|----------------------------------------------------------|
G|----------------------------------------------------------|
D|--2-----4-----------4-----4/5\4--4-----------4-----4/5/7--|
A|--x--0--x--0--2--0--x--0--x-x-x--x--0--2--0--x--0--x-x-x--|
D|--2--0--4--0--2--0--4--0--4/5\4--4--0--2--0--4--0--4/5/7--|

Verse 2
Same as Verse 1

Chorus 2
E|------------------------------------------------------|
B|------------------------------------------------------|
G|------------------------------------------------------|
D|--7-7-7--x-x-x--11--11--11--x-x-x--12--12--12--x-x-x--|
A|--5-5-5--x-x-x---7---7---7--x-x-x---9---9---9--x-x-x--|
D|--5-5-5--x-x-x---7---7---7--x-x-x---9---9---9--x-x-x--|
  
E|------------------------------------------------------|
B|------------------------------------------------------|
G|------------------------------------------------------|
D|--0h5-5-5--x-x-x--7-7-7-7--5-5-5-5--7-7-7-7--5-5-5-5--|
A|--0h2-2-2--x-x-x--5-5-5-5--2-2-2-2--5-5-5-5--2-2-2-2--|
D|--0h2-2-2--x-x-x--5-5-5-5--2-2-2-2--5-5-5-5--2-2-2-2--|

E|------------------------------------------------------|
B|------------------------------------------------------|
G|------------------------------------------------------|
D|--7-7-7--x-x-x--11--11--11--x-x-x--12--12--12--x-x-x--|
A|--5-5-5--x-x-x---7---7---7--x-x-x---9---9---9--x-x-x--|
D|--5-5-5--x-x-x---7---7---7--x-x-x---9---9---9--x-x-x--|
  
E|----------------------------------------------|
B|----------------------------------------------|
G|----------------------------------------------|
D|--0h5-5-5--x-x-x--7-7-7-7--5-5-5-----------0--|
A|--0h2-2-2--x-x-x--5-5-5-5--2-2-2--------------|
D|--0h2-2-2--x-x-x--5-5-5-5--2-2-2--0--2--4-----|

Interlude 2
Same as Intro

Bridge
E|--0-0-0-0-----------0-0-0-0-----------------------------|
B|--3-3-3-3--0-0-0-0--3-3-3-3--0-0-0-0--------------------|
G|--2-2-2-2--7-7-7-7--2-2-2-2--7-7-7-7--7-7-7-7--7-7-7-7--|
D|--0-0-0-0--7-7-7-7--0-0-0-0--7-7-7-7--5-5-5-5--5-5-5-5--|
A|--0-0-0-0--5-5-5-5--0-0-0-0--5-5-5-5--x-x-x-x--7-7-7-7--|
D|--0-0-0-0--5-5-5-5--0-0-0-0--5-5-5-5--7-7-7-7-----------|

E|------------------------------------|
B|------------------------------------|
G|--7-7-7-7-7-7-7-7--7-7-7-7-7-7-7-7--|
D|--5-5-5-5-5-5-5-5--5-5-5-5-5-5-5-5--|
A|--3-3-3-3-3-3-3-3--5-5-5-5-5-5-5-5--|
D|-------------------5-5-5-5-5-5-5-5--|

Chorus 3 - 2x
E|--0-0-0-0-0-0-0-0--0-0-0-0-0-0-0-0--0-0-0-0-0-0-0-0--0-0-0-0-0-0-0-0--|
B|--3-3-3-3-3-3-3-3--0-0-0-0-0-0-0-0--3-3-3-3-3-3-3-3--0-0-0-0-0-0-0-0--|
G|--2-2-2-2-2-2-2-2--x-x-x-x-x-x-x-x--2-2-2-2-2-2-2-2--x-x-x-x-x-x-x-x--|
D|--0-0-0-0-0-0-0-0--7-7-7-7-7-7-7-7--0-0-0-0-0-0-0-0--7-7-7-7-7-7-7-7--|
A|--0-0-0-0-0-0-0-0--5-5-5-5-5-5-5-5--0-0-0-0-0-0-0-0--5-5-5-5-5-5-5-5--|
D|--0-0-0-0-0-0-0-0--5-5-5-5-5-5-5-5--0-0-0-0-0-0-0-0--5-5-5-5-5-5-5-5--|

Outro
E|-----------------------------------------------0--|
B|-----------------------------------------------3--|
G|-----------0-0-0-----------0-0-0---------------2--|
D|-----------4/5\4-----------4/5\4--4-4-4-4-4-4--0--|
A|--2--2--2---------0--0--0---------2-2-2-2-2-2--0--|
D|----------------------------------2-2-2-2-2-2--0--|
Tap to rate this tab
# A B C D E F G H I J K L M N O P Q R S T U V W X Y Z