Symphony X - Paradise Lost tab

PARADISE LOST
As recorded by Symphony X
(From the 2007 Album PARADISE LOST)

Transcribed by Andreas Nore
	
Words by Michael Romeo Music by Michael Romeo, Michael Pinnella

All guitars tuned 1 step down
 Intro
  Q=142
 6/8                     7/8
  Gtr I
|-------|-------|-------|-----|
|-------|-------|-------|-----|
|-------|-------|-------|-----|
|-------|-------|-------|-----|
|-------|-------|-------|-----|
|-------|-------|-------|-----|


   Pre-Verse
   6/8                                         7/8
                                                                 4x
||---------------|-------------|-----3---2---||-----0------------||
||o--------------|-----5---3---|-------------||---1---1-/3------o||
||------0--------|-------------|--/4---4---2-||-0----------4-----||
||----2---2-/4---|--/5---5---4-|-------------||--------------4---||
||o------------5-|-------------|-------------||-----------------o||
||--0------------|-------------|-------------||------------------||


 6/8
|------------|------------|------------|
|------------|------------|------------|
|---------4--|---------4--|---------6--|
|-----5------|-----5------|-----7------|
|---5---5----|---5---5----|---7---7----|
|-3----------|-3----------|-5----------|


|------------|------------|--------------|
|------------|---------2--|---------2----|
|---------6--|-----2------|-----2--------|
|-----7------|---4---4----|---4---4------|
|---7---7----|------------|--------------|
|-5----------|-2----------|-2------------|


|------------|------------|------------|------------|---------2--|---------2--|
|------------|------------|---------5--|---------5--|-----3------|-----3------|
|---------4--|---------4--|-----5------|-----5------|---2---2----|---2---2----|
|-----5------|-----5------|---5---5----|---5---5----|-0----------|-0----------|
|---5---5----|---5---5----|-3----------|-3----------|------------|------------|
|-3----------|-3----------|------------|------------|------------|------------|


|------------|------------|------------|-------5-3-2--|
|---------3--|---------3--|---------5--|-----3--------|
|-----2------|-----2------|-----5------|---2----------|
|---4---4----|---4---4----|---5---5----|-0------------|
|-2----------|-2----------|-3----------|--------------|
|------------|------------|------------|--------------|


   Verse
   6/8                                         7/8
                                                                 6x
||---------------|-------------|-----3---2---||-----0------------||
||o--------------|-----5---3---|-------------||---1---1-/3------o||
||------0--------|-------------|--/4---4---2-||-0----------4-----||
||----2---2-/4---|--/5---5---4-|-------------||--------------4---||
||o------------5-|-------------|-------------||-----------------o||
||--0------------|-------------|-------------||------------------||


 Pre-Chorus
 6/8                                         7/8
  Gtr II
  ~  PM        PM  PM        PM                     PM--|
|------------|-------------|---------------||--------------|
|------------|-------------|---------------||--------------|
|------------|-------------|---------------||--------------|
|------4-2-4-|---4---4-2-4-|-------2---6-2-||--------------|
|------------|-------------|---2h4---4-----||-5--5--4-2-4--|
|-2--2-------|-2---2-------|-2-------------||--------------|


 6/8                                         7/8
  ~  PM        PM  PM        PM
|------------|-------------|---------------||-----------------|
|------------|-------------|---------------||-----------------|
|------------|-------------|---------------||----------6-4----|
|------4-2-4-|---4---4-2-4-|-------2---6-2-||-/7-6-4-------7--|
|------------|-------------|---2h4---4-----||--------7--------|
|-2--2-------|-2---2-------|-2-------------||-----------------|


 6/8                                         7/8
  Gtr II
  ~  PM        PM  PM        PM                     PM--|
|------------|-------------|---------------||--------------|
|------------|-------------|---------------||--------------|
|------------|-------------|---------------||--------------|
|------4-2-4-|---4---4-2-4-|-------2---6-2-||--------------|
|------------|-------------|---2h4---4-----||-5--5--4-2-4--|
|-2--2-------|-2---2-------|-2-------------||--------------|


 6/8
  ~  PM        PM  PM        PM
|------------|-------------|---------------||
|------------|-------------|---------------||
|------------|-------------|---------------||
|------4-2-4-|---4---4-2-4-|-------2---6-2-||
|------------|-------------|---2h4---4-----||
|-2--2-------|-2---2-------|-2-------------||


 8/8
|-----------------------------------|
|-----------------------------------|
|-6-4-----4-2-----------------------|
|-----7-4-----4-2-/7-4-----4-2------|
|----------------------7-4-----4-2--|
|-----------------------------------|


   Chorus
   6/8
    Gtr I
                                                           4x
||--------0-----|-------0-----|-------0-----|-------0------||
||o-----0-----0-|-----0-----0-|-----0-----0-|---4-----4---o||
||----6-----6---|---2-----2---|---1-----1---|-4---4-----4--||
||--4-----------|-4-----------|-4-----------|--------------||
||o-------------|-------------|-------------|-------------o||
||--------------|-------------|-------------|--------------||
|
|   Gtr II
|                                                          4x
||--------------|-------------|-------------|--------------||
||o-------------|-------------|-------------|-------------o||
||--------------|-------------|-------------|--------------||
||--------------|-2-----------|-------------|-4------------||
||o-4-----------|-0-----------|-2-----------|-2-----------o||
||--2-----------|-------------|-0-----------|--------------||


 6/8                             7/8
  Gtr II
                                   >
|--------|----------|----------||--------------||
|--------|----------|----------||--------------||
|--------|----------|----------||--------------||
|--------|----------|----------||--------------||
|-4------|-(4)------|-(4)------||-(4)----(4)---||
|-2------|-(2)------|-(2)------||-(2)----(2)---||


 6/8                        7/8
|----------|-------|-------|--------|
|----------|-------|-------|--------|
|----------|-------|-------|--------|
|----------|-------|-------|--------|
|-(4)------|-------|-------|--------|
|-(2)------|-------|-------|--------|


   Verse
   6/8
    Gtr I
||---------------|-----2---0---|-----5---4---||
||o--------------|-------------|-------------||
||------2--------|--/2---2---1-|--/6---6---4-||
||----4---4-/6---|-------------|-------------||
||o------------7-|-------------|-------------||
||--2------------|-------------|-------------||
|
|   Gtr II
|     PM-------------------------------|
||---------------|-------------|-------------||
||o--------------|-------------|-------------||
||---------------|-------------|-------------||
||----4---4------|---4---4-----|---4---4-----||
||o-----4--------|-----4-------|-----4-------||
||---------------|-------------|-------------||


 1.,2.,3.           4.
 7/8
                  4x
|-------2---------||-------2--------|
|-----3---/5-----o||-----3---/5-----|
|---2--------4----||---2--------4---|
|-0------------6--||-0------------6-|
|----------------o||----------------|
|-----------------||----------------|
|
|   PM---------|       PM---------|
|                 4x
|-----------------||----------------|
|----------------o||----------------|
|-----------------||----------------|
|-------7--2------||-------7--------|
|---5-7------2-4-o||---5-7----4-----|
|-----------------||------------7-5-|


 6/8
  Gtr II
  ~    PM        PM     PM
|--------------|------------------|
|--------------|------------------|
|------7---6---|-------11----9----|
|---/9---9---7-|---/12----12---11-|
|--------------|------------------|
|-7------------|-7----------------|


                          7/8
                                           PM--|
|-----------------------||------------------------|
|-----------------------||------------------------|
|-7---6b8r(6)-----------||------------------------|
|---9---------9-7b9r(7)-||------------------------|
|-----------------------||-7b9r(7)-5b7r(5)-4------|
|-----------------------||-------------------7-5--|


 6/8
  ~    PM        PM     PM
|--------------|------------------|
|--------------|------------------|
|------7---6---|-------11----9----|
|---/9---9---7-|---/12----12---11-|
|--------------|------------------|
|-7------------|-7----------------|


                        8/8
                                         PM----|
|---------------------||-------------------------|
|---------------------||-------------------------|
|-7---6---6h7---------||-------------------------|
|---9---7-----7b9r(7)-||-------------------------|
|---------------------||-7b9r(7)-5b7r(5)-4-------|
|---------------------||-------------------7-5-7-|


 Pre-Chorus
 7/4
  Gtr I
|-------9---------9---------|-------7---------7---------|
|-9---7-----9---7------9----|-9---7-----9---7------7----|
|---6---------6-----------6-|---------------------------|
|---------------------------|---9---------9-----------9-|
|---------------------------|---------------------------|
|---------------------------|---------------------------|
|
| Gtr II
|---------------------------|---------------------------|
|---------------------------|---------------------------|
|---------------------------|---------------------------|
|-6-------------------(6)---|-7-------------------(7)---|
|-4-------------------(4)---|-5-------------------(5)---|
|---------------------------|---------------------------|


|-4-----4---4-----4---------|-4-----7---4-----7------------|
|-----5---------5------5----|-----5---------5------5-------|
|---4---------4-----------4-|---4---------4-----------4----|
|---------------------------|------------------------------|
|---------------------------|------------------------------|
|---------------------------|------------------------------|
|
|---------------------------|------------------------------|
|---------------------------|------------------------------|
|---------------------------|------------------------------|
|---------------------------|-6-------------------(6)------|
|-2-------------------(2)---|-4-------------------(4)------|
|-0-------------------(0)---|------------------------------|


|-5----------5-----2-----2----|-0----------5-----0-----2----|
|-----3-5--3-----3----5-----3-|-------2--------3----3-----3-|
|---2----------2--------------|-----4----2---2--------------|
|-----------------------------|---2-------------------------|
|-----------------------------|-----------------------------|
|-----------------------------|-----------------------------|
|
|-----------------------------|-----------------------------|
|-----------------------------|-----------------------------|
|-----------------------------|-----------------------------|
|-7---------------------(7)---|-2---------------------(2)---|
|-5---------------------(5)---|-0---------------------(0)---|
|-----------------------------|-----------------------------|


                                8/4
|-------4---------5---2-------||------------4--7-4----------------------|
|-3---3-----3---3---5----5--3-||----6---7----------6--------------------|
|---2---------2---------------||-6----6---6----------6--4---------------|
|-----------------------------||---------------------------6----4---3---|
|-----------------------------||----------------------------------------|
|-----------------------------||----------------------------------------|
|
|-----------------------------||----------------------------------------|
|-----------------------------||----------------------------------------|
|-----------------------------||----------------------------------------|
|-7---------------------(7)---||-6---------------------(6)--------------|
|-5---------------------(5)---||-4---------------------(4)---/(12)\-----|
|-----------------------------||-----------------------------/(12)\-----|


   Chorus
   6/8
    Gtr I
                                                           8x
||--------0-----|-------0-----|-------0-----|-------0------||
||o-----0-----0-|-----0-----0-|-----0-----0-|---4-----4---o||
||----6-----6---|---2-----2---|---1-----1---|-4---4-----4--||
||--4-----------|-4-----------|-4-----------|--------------||
||o-------------|-------------|-------------|-------------o||
||--------------|-------------|-------------|--------------||
|
|   Gtr II
|                                                          8x
||--------------|-------------|-------------|--------------||
||o-------------|-------------|-------------|-------------o||
||--------------|-------------|-------------|--------------||
||--------------|-2-----------|-------------|-4------------||
||o-4-----------|-0-----------|-2-----------|-2-----------o||
||--2-----------|-------------|-0-----------|--------------||


 Bridge
 7/4
  Gtr II
|-----------------|-----------------|-------------------|
|-----------------|-----------------|-------------------|
|-----------------|-----------------|-------------------|
|-7---------------|-9------------6--|-------------------|
|-5------------9--|-7------------4--|-4------------(4)--|
|--------------7--|-----------------|-2------------(2)--|


|-------------------|-------------------|
|-------------------|-------------------|
|-------------------|-------------------|
|-------------------|-7-----------------|
|-4------------(4)--|-5------------9----|
|-2------------(2)--|--------------7----|


 Guitar Solo
                                        8/4
  Gtr II
|-----------------|-------------------||--------------------------------------|
|-----------------|-------------------||--------------------------------------|
|-----------------|-------------------||--------------------------------------|
|-9------------6--|-------------------||--------------------------------------|
|-7------------4--|-4------------(4)--||-4------4-----------------------------|
|-----------------|-2------------(2)--||-2------2------/7\--------------------|
|
| Gtr III
|-----------------|-------------------||--------------------------------------|
|-----------------|-------------------||--------------------------------------|
|-----------------|-------------------||-------------------------------4-6----|
|-----------------|-------------------||---------------------------4-6--------|
|-----------------|-------------------||-------------------11\-4-6------------|
|-----------------|-------------------||--------------------------------------|


 6/8                                                    7/8
  Gtr I
   |  | |  |   |     | | |  |       |     | | | |   |      |       |
   /  / /  /   /     / / /  /       /     / / / /   /      /       /

      PM--------------------------------------------|                       PM
|----------------|--------------------|---------------||----------------------||
|----------------|--------------------|---------------||----------------------||
|----------------|--------------------|---------------||----------------------||
|----------------|--------------------|---------------||---9-------8----------||
|--6-------------|--------------------|---------------||---7-------6--------6-||
|--4--4-4--4---4-|---4-4-4--4---4---4-|---4-4-4-4-4-4-||----------------------||
|
|                                                                  \0.25/
|  ~~                                     ~~~
|----------------|--------------------|---------------||----------14-------16-||
|----------------|-/11----------------|-/16-----------||-(16)\----------------||
|-/8------(8)\---|---------11-(11)\---|---------------||----------------------||
|----------------|--------------------|---------------||----------------------||
|----------------|--------------------|---------------||----------------------||
|----------------|--------------------|---------------||----------------------||


 6/8
   |  | |   |  |     |        |     |        |              |
   /  / /   /  /     /        /     /        /              /

      PM-------------------------------------------------|
|----------------|-------------------------------------------------|
|----------------|-------------------------------------------------|
|----------------|-------------------------------------------------|
|----------------|-------------------------------------------------|
|--6-------------|-------------------------------------------------|
|--4--4-4---4--4-|---4--------4-----4--------4-----4--------4------|
|
|           \1
|  ~~
|----------------|-------------------------------------------------|
|-16------(16)---|-[11]b13r([11])-[11]b13r([11])-[11]b13r([11])----|
|----------------|-------------------------------------------------|
|----------------|-------------------------------------------------|
|----------------|-------------------------------------------------|
|----------------|-------------------------------------------------|


 6/8              7/8               6/8
  | |  | |    |     |       |        |  | | | |
  / /  / /    /     /       /        /  / / / /

  Gtr II
  PM---------|                  PM      PM-------
|---------------||----------------||------------|
|---------------||----------------||------------|
|---------------||----------------||------------|
|---------------||--9-------8-----||------------|
|---------------||--7-------6---6-||-6----------|
|-4-4--4-4-4--4-||----------------||-4--4-4-4-4-|
|
| Gtr III
|                                    ~
|-----11--------||----------------||------------|
|-9------9------||----------------||------------|
|------------11-||----------------||------------|
|---------------||-11--8----------||------------|
|---------------||-------9\---4S==||=6----------|
|---------------||----------------||------------|


  |    | | |     |   |   | | |       |
  /    / / /     /   /   / / /       /

 ------------------------------------|
|------------------|-----------------------|
|------------------|-----------------------|
|------------------|-----------------------|
|------------------|-----------------------|
|------------------|-----------------------|
|-4----4-4-4---4-4-|-4---4-4-4---4---4-----|
|
|------------------|-----------------------|
|------------------|-----------------------|
|-9h11p8-----------|-----------------------|
|------------------|-8h9p6-----------------|
|----------7h9p6---|---------9p7p6---------|
|------------------|---------------9p7p6---|


 7/8
  |                               |
  /                               /

                                                   PM
|---------------------------------------------------------||
|---------------------------------------------------------||
|---------------------------------------------------------||
|-9-------------------------------8-----------------------||
|-7-------------------------------6----------------6------||
|---------------------------------------------------------||
|
|-------------------------------------------------------9-||
|---------------------------------------------9h11h==12---||
|----------------------8h9h11----------8h9h11-------------||
|---------------8h9h11--------8h9h==11--------------------||
|--------7h9h11-------------------------------------------||
|-7h9h11--------------------------------------------------||


 6/8
   |               |     | | |
   /               /     / / /

                   PM--------|
|-----------------------------------|
|-----------------------------------|
|-----------------------------------|
|-----------------------------------|
|--6--------------------------------|
|--4---------------4-----4-4-4------|
|
|-11-12-11p9---------/16-------(16)-|
|------------12p11p9----------------|
|-----------------------------------|
|-----------------------------------|
|-----------------------------------|
|-----------------------------------|


                                                  7/8
    |     |     | |   |     |     |     | |   |     |         |
    /     /     / /   /     /     /     / /   /     /         /

    PM----------------------------------------|                  PM
|-----------------------|-----------------------||-----------------|
|-----------------------|-----------------------||-----------------|
|-----------------------|-----------------------||-----------------|
|-----------------------|-----------------------||--9---------8----|
|-----------------------|-----------------------||--7---------6--6-|
|---4-----4-----4-4-4-4-|---4-----4-----4-4-4-4-||-----------------|
|
|               ~~                      ~~                ~~
|-/21p16h19h21p19-------|-/23p19h21h23p21-------||-19h21p19--------|
|-----------------------|-----------------------||-----------------|
|-----------------------|-----------------------||-----------------|
|-----------------------|-----------------------||-----------------|
|-----------------------|-----------------------||-----------------|
|-----------------------|-----------------------||-----------------|


 6/8
   |  | |   |   |    |  |  |  |     |    |     |     |      |            |
   /  / /   /   /    /  /  /  /     /    /     /     /      /            /

      PM----------------------------------------------------------------|
|-----------------|-------------------|----------------------------------------|
|-----------------|-------------------|----------------------------------------|
|-----------------|-------------------|----------------------------------------|
|--4--------------|-------------------|----------------------------------------|
|--2--2-2---2---2-|--2--2--2--2--2--2-|--2-----2-----2------2------2-----2-----|
|-----------------|-------------------|----------------------------------------|
|
|  ~~                                    T        T         T         T
|-19------(19)S14-|-10----------10-14-|-19p14p10-14p10-------------------------|
|-----------------|----12----12-------|----------------h12-15p12---------------|
|-----------------|-------11----------|--------------------------h11-16p11-----|
|-----------------|-------------------|------------------------------------h12-|
|-----------------|-------------------|----------------------------------------|
|-----------------|-------------------|----------------------------------------|


 7/8
   |                       |
   /                       /

                                  PM
|-----------------------------------||
|-----------------------------------||
|-----------------------------------||
|-----------------------------------||
|--5-----------------------4--------||
|--3-----------------------2------2-||
|
|  T           T           T      T
|-----------------------------------||
|-----------------------------------||
|-----------------------------------||
|-16p12p11h12-14p12p11h12-16--------||
|----------------------------h12-16p||
|-----------------------------------||


 6/8
      |    |       |     |   |      |  | |   |      |
      /    /       /     /   /      /  / /   /      /

           PM-------------------------------------|
|-------------------------------|----------------------|
|-------------------------------|----------------------|
|-------------------------------|----------------------|
|-----4-------------------------|----------------------|
|-----2----2-------2-----2---2--|---2--2-2---2--2---2--|
|-------------------------------|----------------------|
|
|     ~~
|-------------------------------|----------------------|
|-----------------10b12====(10)-|-(10)-----(10)r==(10)-|
|---------------x---------------|----------------------|
|-------------x-----------------|----------------------|
|-12s14--(14)-------------------|----------------------|
|-------------------------------|----------------------|


                                  7/8
  |    |   |      |        |       |         |
  /    /   /      /        /       /         /

  PM-----------------------|                           PM
|-------------------------------||---------------------------||
|-------------------------------||---------------------------||
|-------------------------------||---------------------------||
|-------------------------------||---------------------------||
|-2----2---2------2----2---2----||-5---------4---------------||
|-------------------------------||-3---------2---------2-----||
|
|                                         ~            T
|-7-----------------7-----------||---------------------------||
|---10---7------7-----10-7------||-7-------------------------||
|----------9b11--------------10-||---10-9-7------------------||
|-------------------------------||-------------h9-7h9-14p9p7-||
|-------------------------------||---------------------------||
|-------------------------------||---------------------------||


 6/8
   |              |      |      |        |
   /              /      /      /        /

                  PM--------------------|
|-----------------------------------------------|
|-----------------------------------------------|
|-----------------------------------------------|
|--4--------------------------------------------|
|--2--------------2------2------2--------2------|
|-----------------------------------------------|
|
|         T       T             T        T
|-----------------------------------------------|
|---------------------------------h7-10-14p10p7-|
|-----------h7-9-14p9p7-------------------------|
|-----------------------h9-7h9-14---------------|
|-h9-7h9-12-------------------------------------|
|-----------------------------------------------|


 6/8
   |      |        |          |                |
   /      /        /          /                /

   PM------------------------------------------------
|---------------------------------------------------|
|---------------------------------------------------|
|---------------------------------------------------|
|---------------------------------------------------|
|--2------2--------2----------2------2---------2----|
|---------------------------------------------------|
|
|                                       \0.5/
|         T        T     T
|-----------h7-10-14p10-14p10---7-------------------|
|---------------------------------10-7-10s====12----|
|-h9-7-9-14--------------------------------------11-|
|---------------------------------------------------|
|---------------------------------------------------|
|---------------------------------------------------|


                           7/8
   |   |     |   |     |      |             |
   /   /     /   /     /      /             /

 ----------------------|                          PM
|------------------------||-------------------------|
|------------------------||-------------------------|
|------------------------||-------------------------|
|------------------------||-------------------------|
|--2---2-----2---2---2-2-||---5-------------4-------|
|------------------------||---3-------------2-----2-|
|
|      \0.5/
|                    ~
|------------------------||-------------------------|
|------------------------||-----10-----12-----14----|
|-\9-7h9-----7-----------||----------------------14-|
|--------------9-7-7h9---||-/11----/12----/14-------|
|------------------------||-------------------------|
|------------------------||-------------------------|


 6/8
   |    |   |    |  |    |     | |   |      |
   /    /   /    /  /    /     / /   /      /

        PM--------------------------------------
|---------------------|------------------------|
|---------------------|------------------------|
|---------------------|------------------------|
|--4------------------|------------------------|
|--2----2---2----2--2-|--2-----2-2---2--2---2--|
|---------------------|------------------------|
|
|       \1
|  ~~                    ~~~~~~
|-14--(14)-15b17---15-|------------------------|
|---------------------|-17b19======(17)r==(17)-|
|---------------------|------------------------|
|---------------------|------------------------|
|---------------------|------------------------|
|---------------------|------------------------|


                           8/8
   |    | | |       |        |                 |
   /    / / /       /        /                 /

 -------------------|
|------------------------||---------------------------------------|
|------------------------||---------------------------------------|
|------------------------||---------------------------------------|
|------------------------||---------------------------------------|
|--2----2-2-2--2----2----||--5-----------------4------------------|
|------------------------||--3-----------------2------------------|
|
|                            ~~~~~~~~~~~~~~~~~~~~~~~~~~~~~~~~~~~~~
|-22b25r======19------19-||---------------------------------------|
|----------------22------||-22b24==(22)-(22)-(22)-(22)-(22)-(22)r-|
|------------------------||---------------------------------------|
|------------------------||---------------------------------------|
|------------------------||---------------------------------------|
|------------------------||---------------------------------------|


 Breakdown
 6/8
  ~~~~~~~~~~~~~~~~~~~~~~~~~~~~~~~~~~~~~~~
|--------|----------|--------|----------|
|--------|----------|--------|----------|
|--------|----------|--------|----------|
|--------|----------|--------|----------|
|-5------|-(5)------|-7------|-(7)------|
|--------|----------|--------|----------|


 ~~~~~~~~~~~~~~~~~~~~~~~~~~~~~~~~~~
|--------|----------|--------|---------------|
|--------|----------|--------|---------------|
|--------|----------|--------|---------------|
|--------|----------|--------|---------------|
|--------|----------|--------|----------4----|
|-2------|-(2)------|-4------|-(4)----7------|


  ~~~~~~~~~~~~~~~~~~~~~~~~~~~~~~~~~~~~~~~
|--------|----------|--------|----------|
|--------|----------|--------|----------|
|--------|----------|--------|----------|
|--------|----------|--------|----------|
|-5------|-(5)------|-7------|-(7)------|
|--------|----------|--------|----------|


 ~~~~~~~~~~~~~~~~~~~~~~~~~~~~~~~~~~
|--------|----------|--------|---------------|
|--------|----------|--------|---------------|
|--------|----------|--------|----------6----|
|--------|----------|-6------|-(6)----9------|
|-9------|-(9)------|--------|---------------|
|--------|----------|--------|---------------|


  ~~~~~~~~~~~~~
|--------|------------|-----------|-----------|
|--------|------------|-----------|-----------|
|-7------|-(7)----9-7-|-6tr7------|-(6tr7)----|
|--------|------------|-----------|-----------|
|--------|------------|-----------|-----------|
|--------|------------|-----------|-----------|


   Pre Out Chorus
    Gtr I
                                                   4x
||--------0---|-------0---|-------0---|-------0----||
||o-----0-----|-----0-----|-----0-----|---4-------o||
||----6-------|---2-------|---1-------|-4---4------||
||--4---------|-4---------|-4---------|------------||
||o-----------|-----------|-----------|-----------o||
||------------|-----------|-----------|------------||


   Chorus
   6/8
    Gtr I
                                                          12x
||----0---3---0-|-------3-----|-------3-----|---2---3-2----||
||o-----3---3---|---1-3---1-3-|---0-3---0-3-|-3---3-----3-o||
||--2-----------|-2-----------|-2-----------|--------------||
||--------------|-------------|-------------|--------------||
||o-------------|-------------|-------------|-------------o||
||--------------|-------------|-------------|--------------||
|
|   Gtr II
|                                                         12x
||--------------|-------------|-------------|--------------||
||o-------------|-------------|-------------|-------------o||
||--------------|-------------|-------------|--------------||
||--------------|-5-----------|-------------|-7------------||
||o-7-----------|-3-----------|-5-----------|-5-----------o||
||--5-----------|-------------|-3-----------|--------------||



** Generated using Power Tab Editor by Brad Larsen: The Official Power Tab Web Site
Tap to rate this tab
 
# A B C D E F G H I J K L M N O P Q R S T U V W X Y Z