Guitaretab - guitar tabs
Song name
# A B C D E F G H I J K L M N O P Q R S T U V W X Y Z

System Of A Down - When The Smoke Is Going Down tab

-=When the Smoke is going down=-
================================
This song's tuning is drop D; then all strings down one whole step
(C-G-C-F-A-D)


Artist: System of a down (Scorpions Cover)
Release: Live at Lowlands (22 August, 2001)
Transcribed by: Alex Schopf
Email: Wes-God@web.de

It's played at the Lowlands and is just break for Shavo, Serj and John while
Daron is playing it! I'd try to play it right after you you've played "the prison
song" cause Daron also did it! After that "Know"!
I wrote down the whole picking pattern because it's the easiest way
to play it!HAVE FUN WITH THIS EASY TAB!

1:-------------------1-----3-1-0---|-------------------1-----1-------|
2:-----3-------5-------3-----------|-----3-------5-------3-----------|
3:---------------5-------2-------0-|-------3-------5-------2---2-----|
4:---3---3---5-----0---------------|---3-------5-----0-----------0-0-|
5:-1-------3-----------------------|-1-------3-----------------------|
6:---------------------------------|---------------------------------|
[ Tab from: http://www.guitaretab.com/s/system-of-a-down/122422.html ]
1:-------------------1-----3-1-0---|-------------------1-----1----1-|
2:---1-------1---------3-----------|-----3-------5-------3-----3----|
3:-----0---0---0---------2-------2-|-----------------------2--------|
4:-----------------0---------------|---3---3---5---5-0--------------|
5:-3-----3-------------------------|-1-------3----------------------|
6:---------------------------------|--------------------------------|

1:---------------------1---3-1-0---|-------------------1-----1---1---|
2:-----1-------1-----3---3---------|-----3-------5-------3-----------|
3:---0-------0-------------------2-|---------------5-------2---2---2-|
4:-2-----2-------2-0---------------|---3---3---5-----0---------------|
5:---------3-----------------------|-1-------3-----------------------|
6:---------------------------------|---------------------------------|

1:-------------------1-----3-1-0---|-------------------1-------1-----|
2:---1-1-----1-1-------3-----------|-----3-------5-------------------|
3:-------0-------0-0-----2-------0-|---3-----------5-0---2---2---2---|
4:---------------------------------|-------3---5-----------0-------0-|
5:-3-------3-----------------------|-1-------3-----------------------|
6:---------------------------------|---------------------------------|

1:---------------------1-----------|-------------------------|
2:-----1-----------------------3---|-----3-------5-----------|
3:---0---------------2---2---2-----|---------------5---2-2---|
4:-------2---2-2-2-0-------0-----0-|---3---3---5-----0-------|
5:-3-------3-----------------------|-1-------3---------------|
6:---------------------------------|-------------------------|
Related for When The Smoke Is Going Down tab
Advertisement will be closed in 10 seconds