Song name
# A B C D E F G H I J K L M N O P Q R S T U V W X Y Z

System Of A Down - Jet Pilot tab

Band:System Of A Down
Song:Jet Pilot
Album:Toxicity
Tuning:CGCFAD
Tabbed By:Glenn

""""=palm mute


Intro/Chorus
-----------------|-----------------------------------
-----------------|-----------------------------------
-----------------|-----------------------------------
-8-0-0-0-1s6-0-0-|-8-0-0-0-1s6-0-0-8-0-0-0-0-0-0-0-0-
-6-0-0-0-1s6-0-0-|-6-0-0-0-1s6-0-0-6-0-0-0-0-0-0-0-0-
---0-0-0-1s6-0-0-|---0-0-0-1s6-0-0---0-0-0-0-0-0-0-0-
   """""     """     """""     """   """""""""""""""

---------------------------------|---------------------------------
---------------------------------|---------------------------------
---------------------------------|---------------------------------
-1-0-0-0-1s6-0-0-1s8-0-0-1s6-0-0-|-8-0-0-0-1s6-0-0-1s8-0-0-1s6-0-0-
-1-0-0-0-1s6-0-0-1s8-0-0-1s6-0-0-|-6-0-0-0-1s6-0-0-1s8-0-0-1s6-0-0-
-1-0-0-0-1s6-0-0-1s8-0-0-1s6-0-0-|---0-0-0-1s6-0-0-1s8-0-0-1s6-0-0-
   """""     """     """     """     """""     """     """     """

Bridge
---------------------
---------------------
---------------------
---------------------
-0-8-7-5-7-5h7p5-3-1-
---------------------

Verse
-------------|-----------------
-------------|-----------------
-------------|-----------------
-7-8-7-8-7-5-|-7-8-7-8-7-5-5-5-
-7-8-7-8-7-5-|-7-8-7-8-7-5-5-5-
-7-8-7-8-7-5-|-7-8-7-8-7-5-5-5-
 """""""""""   """""""""""""""

Solo
------------------------------------------
----------------------5---6-5-----6-------
------------------7-5---7-----7-5---7-5---
-----5-7-8-7-10-8-----------------------7-
-0-8--------------------------------------
------------------------------------------
                          """""""""""""""
Tap to rate this tab
 
# A B C D E F G H I J K L M N O P Q R S T U V W X Y Z