Guitaretab - guitar tabs
Song name
# A B C D E F G H I J K L M N O P Q R S T U V W X Y Z

System Of A Down - I-e-a-i-a-i-o tab

I-E-A-I-A-I-O - System Of A Down
Steal This Album

Drop C:
C G C F A D

+ = tap
< > = harmonics
v = bar dive

Intro: Drums, then

  +         +        +        +        +        +

d-16-p10h13-16p10h13-16p10h13-16p10h13-16p10h13-16p10---
a-------------------------------------------------------
f-------------------------------------------------------
c-------------------------------------------------------
g-------------------------------------------------------
c-------------------------------------------------------

  +        +        +         +        +        +

d-16p10h13-16p10h13-16p10-----16p10h13-16p10h13-16------
a-------------------------h13---------------------------
f-------------------------------------------------------
c-------------------------------------------------------
g-------------------------------------------------------
c-------------------------------------------------------

  +        +        +        +        +        +        +

d-16p10h13-16p10h13-16p10h13-16p10h13-16p10h13-16p10h13-16p10h13--
a-----------------------------------------------------------------
f-----------------------------------------------------------------
c-----------------------------------------------------------------
g-----------------------------------------------------------------
c-----------------------------------------------------------------

  +        +        +        +        +        +        +           
+

d-16p10h13-16p10h13-16p10h13-16p10h13-16p10h13-16p10h13-16p10h13-16-
a--------------------------------------------------------------------
f--------------------------------------------------------------------
c--------------------------------------------------------------------
g--------------------------------------------------------------------
c--------------------------------------------------------------------

Interlude: 

Fig. 1 (gtr. 1&2)

x2
d-----------------------------------------------------------------
a-----------------------------------------------------------------
f-----------------------------------------------------------------
c-----------------------------------------------------------------
g-1-0-----0---0-0-1-0-----0---0-0-1-0-----0---0-0-1-0-----0---0-0-
c-1-0-----0---0-0-1-0-----0---0-0-1-0-----0---0-0-1-0-----0---0-0-

Fig. 2 (gtr. 2)

d-----------------------------------------------------------------
a-----------------------------------------------------------------
f-----------------------------------------------------------------
c-----------------------------------------------------------------
g-1-0-----0---0-0-1-0-----0---0-0-1-0-----0---0-0-1-0-----0---0-0-
c-1-0-----0---0-0-1-0-----0---0-0-1-0-----0---0-0-1-0-----0---0-0-

gtr. 1 pm

d-----------------------------------------------------------------
a-----------------------------------------------------------------
f-----------------------------------------------------------------
c-----------------------------------------------------------------
g-----------------------------------------------------------------
c-1-0-0-0-0-0-0-0-1-0-0-0-0-0-0-0-1-0-0-0-0-0-0-0-1-0-0-0-0-0-0-0-

Fig. 2 (cont)

d-----------------------------------------------------------------
a-----------------------------------------------------------------
f-----------------------------------------------------------------
c-----------------------------------------------------------------
g-1-0-----0---0-0-1-0-----0---0-0-1-0-----0---0-0-1-0-----0-------
c-1-0-----0---0-0-1-0-----0---0-0-1-0-----0---0-0-1-0-----0-------

gtr. 1 pm

d-----------------------------------------------------------------
a-----------------------------------------------------------------
f-----------------------------------------------------------------
c-----------------------------------------------------------------
g-----------------------------------------------------------------
c-1-0-0-0-0-0-0-0-1-0-0-0-0-0-0-0-1-0-0-0-0-0-0-0-1-0-0-0-0-------

Verses:

x2, pm
d-------------------------------------------------
a-------------------------------------------------
f-------------------------------------------------
c-------------------------------------------------
g-------------------------------------------------
c-12-10-12-10-12-10-12-10-12-10-12-10-12-10-12-10-

gtr. 2 (gtr. 1 plays Riff an Octave up. 12&13 fret)

d-----------------------------------------------------------------
a-----------------------------------------------------------------
f-----------------------------------------------------------------
c-----------------------------------------------------------------
g-1-0-----0---0-0-1-0-----0---0-0-1-0-----0---0-0-1-0-----0---0-0-
c-1-0-----0---0-0-1-0-----0---0-0-1-0-----0---0-0-1-0-----0---0-0-

x2, pm
d-------------------------------------------------
a-------------------------------------------------
f-------------------------------------------------
c-------------------------------------------------
g-------------------------------------------------
c-12-10-12-10-12-10-12-10-12-10-12-10-12-10-12-10-

gtr. 2 (gtr. 1 plays Riff an Octave up. 12&13 fret)

d-----------------------------------------------------------------
a-----------------------------------------------------------------
f-----------------------------------------------------------------
c-----------------------------------------------------------------
g-1-0-----0---0-0-1-0-----0---0-0-1-0-----0---0-0-1-0-----0-------
c-1-0-----0---0-0-1-0-----0---0-0-1-0-----0---0-0-1-0-----0-------

x2, pm
d-------------------------------------------------
a-------------------------------------------------
f-------------------------------------------------
c-15-14-15-14-------------15-14-15-14-------------
g-------------------------------------------------
c-------------15-14-15-14-------------15-14-15-14-

gtr. 2 (gtr. 1 plays Riff an Octave up. 12&13 fret)

d-----------------------------------------------------------------
a-----------------------------------------------------------------
f-----------------------------------------------------------------
c-----------------------------------------------------------------
g-1-0-----0---0-0-1-0-----0---0-0-1-0-----0---0-0-1-0-----0---0-0-
c-1-0-----0---0-0-1-0-----0---0-0-1-0-----0---0-0-1-0-----0---0-0-

x2, pm
d-------------------------------------------------
a-------------------------------------------------
f-------------------------------------------------
c-12-10-12-10-------------12-10-12-10-------------
g-------------------------------------------------
c-------------12-10-12-10-------------12-10-12-10-

gtr. 2 (gtr. 1 plays Riff an Octave up. 12&13 fret)
[ Tab from: http://www.guitaretab.com/s/system-of-a-down/24090.html ]
d-----------------------------------------------------------------
a-----------------------------------------------------------------
f-----------------------------------------------------------------
c-----------------------------------------------------------------
g-1-0-----0---0-0-1-0-----0---0-0-1-0-----0---0-0-1-0-----0-------
c-1-0-----0---0-0-1-0-----0---0-0-1-0-----0---0-0-1-0-----0-------

Chorus:

pm
d-----------------------------------------------------------------
a-----------------------------------------------------------------
f-----------------------------------------------------------------
c-----------------------------------------------------------------
g-----------------------------------------------------------------
c-0-0-0-0-0---3-3-2-2-2-2-0-0-0-0-5-5-5-5-5-5-3-3-2-2-2-2-0-0-0-0-

d-----------------------------------------------------------------
a-----------------------------------------------------------------
f-----------------------------------------------------------------
c-----------------------------------------------------------------
g-----0-----------------------------------------------------------
c-0---0---0---3-3-2-2-2-2-0-0-0-0-5-5-5-5-5-5-3-3-2-2-2-2-0-0-0-0-

1st Time: Fig. 2
2nd Time: Fig. 1

Fig. 3 x2

d-----------------------------------------------------------------
a-----------------------------------------------------------------
f-----------------------------------------------------------------
c-3-------------------------------5-------------------------------
g-3-------------------------------5-------------------------------
c-3-------0-0-0-0-0-0-0-0-0-0-0-0-5-------0-0-0-0-0-0-0-0-0-0-0-0-

Fig. 2

Interlude:

gtr. 1

d---------5------5---6-5--------------------5---------------------
a----------------------------------------------8~~~~~~-----<7><7>-
f-7---8-7-----------------7~~~~-7---8-7--7-------------x----------
c--------------------------------------------------------0--------
g-----------------------------------------------------------------
c-----------------------------------------------------------------

gtr. 2

d-----------------------------------------------------------------
a---------10~~~~-10--11--------------------10--8~~~~~-------------
f-7---8-7---------------0-7~~~~-7---8-7--7------------------------
c--------------------------------------------------------16-\-7---
g-----------------------------------------------------------------
c-----------------------------------------------------------------

gtr. 1

d---------5------5---6-5--------------------5--6----6-6-----------
a---------------------------------------------------------------x-
f-7---8-7-----------------7~~~~-7---8-7--7---------------------x--
c-------------------------------------------------------------x---
g------------------------------------------------------------x----
c-----------------------------------------------------------------

gtr. 2

d-----------------------------------------------------------------
a---------10~~~~-10--11--------------------10-11~~~~~~~~~~~~~~~~--
f-7---8-7---------------0-7~~~~-7---8-7--7------------------------
c-----------------------------------------------------------------
g-----------------------------------------------------------------
c-----------------------------------------------------------------

Bridge:

gtr. 2 pm

x2
d-----------------------------------------------------------------
a-----------------------------------------------------------------
f-----------------------------------------------------------------
c-----------------------------------------------------------------
g-----------------------------------------------------------------
c-0---1-0---1-0--1-0--------------0---1-0---1-0--1-0--------------

gtr. 1 pm

x2
d-----------------------------------------------------------------
a-----------------------------------------------------------------
f-7---8-7---8-7--8-7---5--5-7-7-7-7---8-7---8-7--8-7---5--5-7-7-7-
c-----------------------------------------------------------------
g-----------------------------------------------------------------
c-----------------------------------------------------------------

then,

gtr. 2 pm

d-----------------------------------------------------------------
a-7---8-7---8-7--8-7--------7-7-7-7---8-7---8-7--8-7--------7-7-7-
f-7---8-7---8-7--8-7---5--5-7-7-7-7---8-7---8-7--8-7---5--5-7-7-7-
c-----------------------------------------------------------------
g-----------------------------------------------------------------
c-----------------------------------------------------------------

gtr. 1 pm

d-----------------------------------------------------------------
a-----------------------------------------------------------------
f-----------------------------------------------------------------
c-----------------------------------------------------------------
g-----------------------------------------------------------------
c-0---1-0---1-0--1-0----0-0-0-0-0-0---1-0---1-0--1-0----0-0-0-0-0-

gtr. 2 

d-----------------------------------------------------------------
a-7---8-7---8-7--8-7--------7-7-7-7---8-7---8-7--8-7--------------
f-7---8-7---8-7--8-7---5--5-7-7-7-7---8-7---8-7--8-7--------------
c------------------------------------------------------0v\--------
g------------------------------------------------------0v\--------
c-----------------------------------------------------------------

gtr. 1 pm

d-----------------------------------------------------------------
a-----------------------------------------------------------------
f-----------------------------------------------------------------
c-----------------------------------------------------------------
g-----------------------------------------------------------------
c-0---1-0---1-0--1-0----0-0-0-0-0-0---1-0---1-0--1-0--------------

Chorus:

x2
d------------------------------------------
a------------------------------------------
f------------------------------------------
c-0------3--2----0----5------3--2----0-----
g-0------3--2----0----5------3--2----0-----
c-0------3--2----0----5------3--2----0-----
 
ah      e  ay   ah   hey    ah oh ...

Fig. 1
Fig. 3
Fig. 1, then

d-----------------------------------------------------------------
a-----------------------------------------------------------------
f-----------------------------------------------------------------
c-----------------------------------------------------------------
g-1-0-----0---0-0-1-0-----0---0-0-1-0-----0---0-0-1-0-----0-------
c-1-0-----0---0-0-1-0-----0---0-0-1-0-----0---0-0-1-0-----0-------


thatís all

*from the "steal this album" tab book*

trevor jones
timmy91199@yahoo.ca
Related for I-e-a-i-a-i-o tab