Song name
# A B C D E F G H I J K L M N O P Q R S T U V W X Y Z

System Of A Down - 36 tab

      36
System Of A Down
Steal This Album!

Guitar I (C G C F A D) - dist.

Intro:
  Moderately Q = 91

Guitar I
   let ring--------------------|
   E E E E E E E E   E E E E E E a Q
||---0---0---0---0-|---0---0---0---0--||
||-0---3---2---4---|-0---3---2---2s6--||
||-----------------|------------------||
||-----------------|------------------||
||-----------------|------------------||
||-----------------|------------------||

    PM----------------------------------------------------------------------------------------------|
    |----6----| |----6----| |----6----| |----6----|   |----6----| |----6----| |----6----| |----6----|
    S S S S S S S S S S S S S S S S S S S S S S S S   S S S S S S S S S S S S S S S S S S S S S S S S
||--------------------------------------------------|-------------------------------------------------|
||o-------------------------------------------------|-------------------------------------------------|
||--------------------------------------------------|-------------------------------------------------|
||--------------------------------------------------|-------------------------------------------------|
||o-------------------------------------------------|-------------------------------------------------|
||--6-5-3-6-5-3-6-5-3-6-5-3-6-5-3-6-5-3-6-5-3-6-5-3-|-6-5-3-6-5-3-6-5-3-6-5-3-6-5-3-6-5-3-6-5-3-6-5-3-|

  PM----------------------------------------------------------------------------------------------|
  |----6----| |----6----| |----6----| |----6----|   |----6----| |----6----| |----6----| |----6----|
  S S S S S S S S S S S S S S S S S S S S S S S S   S S S S S S S S S S S S S S S S S S S S S S S S
|-------------------------------------------------|-------------------------------------------------|
|-------------------------------------------------|-------------------------------------------------|
|-------------------------------------------------|-------------------------------------------------|
|-------------------------------------------------|-------------------------------------------------|
|-------------------------------------------------|-------------------------------------------------|
|-6-5-3-6-5-3-6-5-3-6-5-3-6-5-3-6-5-3-6-5-3-6-5-3-|-6-5-3-6-5-3-6-5-3-6-5-3-6-5-3-6-5-3-6-5-3-6-5-3-|
 ___________________________________________________________________________
|1.                                                                         |
  e e e e e e e e   e e e e e e e e   e e e e S +S  e e e   e e e e e e Q 
|-0-0-0-0-0-0-0-0-|-0-0-0-0-0-0-0-0-|-0-0-0-0-0-(0)-0-0-0-|-0-0-0-0-0-0-0---||
|-0-0-3-3-2-2-4-4-|-0-0-3-3-2-2-4-4-|-0-0-3-3-2-----2-4-4-|-0-0-3-3-2-2-6--o||
|-----------------|-----------------|---------------------|-----------------||
|-----------------|-----------------|---------------------|-----------------||
|-----------------|-----------------|---------------------|----------------o||
|-----------------|-----------------|---------------------|-----------------||

 ____________       PM--------------------------------------------|
|2.                 |----6----| |----6----| |----6----| |----6----|
  e e e e e e e e   S S S S S S S S S S S S S S S S S S S S S S S S
|-0-0-0-0-0-0-0-0-|-------------------------------------------------|
|-0-0-3-3-2-2-4-4-|-------------------------------------------------|
|-----------------|-------------------------------------------------|
|-----------------|-------------------------------------------------|
|-----------------|-------------------------------------------------|
|-----------------|-6-5-3-6-5-3-6-5-3-6-5-3-6-5-3-6-5-3-6-5-3-6-5-3-|
 
                           PM--------------------------------------------|
                           |----6----| |----6----| |----6----| |----6----|
  e e e e e e a E +S  +S   S S S S S S S S S S S S S S S S S S S S S S S S
|-0-0-0-0-0-0---0--------|-------------------------------------------------|
|-0-0-3-3-2-2-3/6-(6)s=1-|-------------------------------------------------|
|------------------------|-------------------------------------------------|
|------------------------|-------------------------------------------------|
|------------------------|-------------------------------------------------|
|------------------------|-6-5-3-6-5-3-6-5-3-6-5-3-6-5-3-6-5-3-6-5-3-6-5-3-|
Tap to rate this tab
# A B C D E F G H I J K L M N O P Q R S T U V W X Y Z