Song name
# A B C D E F G H I J K L M N O P Q R S T U V W X Y Z

System Of A Down - Friik!! tab

-=Friik!=-
==========
This song's tuning is drop D; then all strings down one whole step
(C-G-C-F-A-D)


Artist: System of a down
Release: Unreleased
Transcribed by: Benjamin Marschner
Email: Leerebirne@web.de
HP: www.systemofadowntabs.de.vu


A
1:--------------------------14---------------------------------------|
2:---------15-----------16------16-----------15---------------15-----|
3:-----16------16---17-------------------16------16-------16------16-|
4:-17--------------------------------17---------------17-------------|
5:-------------------------------------------------------------------|
6:-------------------------------------------------------------------|


B
1:-----------------|
2:-----------------|
3:-0^1-0^1-0^1-0^1-|
4:-----------------|
5:-----------------|
6:-----------------|


C
1:---------------------|
2:---------------------|
3:---------------------|
4:-5555-6666-5555-6666-|
5:-5555-6666-5555-6666-|
6:-5555-6666-5555-6666-|


D
1:-------------------------------------|
2:-------------------------------------|
3:-------------------------------------|
4:-5---6---8---6^8^6-5---6---8---6^8^6-|
5:---4---4---4---------4---4---4-------|
6:-------------------------------------|


E
1:--------------------------------|--------------------------------|
2:--------------------------------|--------------------------------|
3:--------------------------------|--------------------------------|
4:-565656--565656--565656--565656-|-565656--565656--565656--565656-|
5:-565656--565656--565656--565656-|-565656--565656--565656--565656-|
6:-565656--565656--565656--565656-|-565656--565656--565656--565656-|

1:---------------------------------|
2:---------------------------------|
3:---------------------------------|
4:-3--3-33-3--3-3---1--1-11-1--1-1-|
5:-3--3-33-3--3-3---1--1-11-1--1-1-|
6:-3--3-33-3--3-3---1--1-11-1--1-1-|


G
1:---------------------|
2:---------------------|
3:---------------------|
4:-5555-6666-5555-6666-|
5:-5555-6666-5555-6666-|
6:-5555-6666-5555-6666-|


H
1:-------------|
2:-------------|
3:-------------|
4:-55-66-55-66-|
5:-55-66-55-66-|
6:-55-66-55-66-|


I
1:-------------|
2:-------------|
3:-------------|
4:-5^6-5^6-5^6-|
5:-5^6-5^6-5^6-|
6:-5^6-5^6-5^6-|


J
1:---------------------------------|
2:---------------------------------|
3:---------------------------------|
4:-3--3-33-3--3-3---1--1-11-1--1-1-|
5:-3--3-33-3--3-3---1--1-11-1--1-1-|
6:-3--3-33-3--3-3---1--1-11-1--1-1-|



ORDER:
=====

A
B 16x
C 4x
D
C 2x
D
C 2x
D
C 2x

E

C 2x
C 2x
C 2x
C 2x

E 2x

F 8x
H, H, H, H
I, I, I, I
E 2x
J 2x
Tap to rate this tab
# A B C D E F G H I J K L M N O P Q R S T U V W X Y Z