Song name
# A B C D E F G H I J K L M N O P Q R S T U V W X Y Z

System Of A Down - A. D. D. tab

Intro
1-------------------------
2-12-12-12-12-12-12-12-b12
3-------------------------
4-------------------------
5-------------------------
6-------------------------

Riff 1/chorus
1----------------------------------------------------------------------------------
2----------------------------------------------------------------------------------
3--5-5-5-5--6-6-6-6-6-6-----------4-4-4--4-4-4-4-----------------------------------
4--5-5-5-5--6-6-6-6-6-6--5-5-5-5--4-4-4--4-4-4-4--p3-p3-p3-p3-p3-p3----------------
5--3-3-3-3--4-4-4-4-4-4--5-5-5-5--2-2-2--2-2-2-2--p3-p3-p3-p3-p3-p3----------------
6------------------------3-3-3-3------------------p1-p1-p1-p1-p1-p1----------------

Riff 2 (very fast)
1----------------------------------------------------------------------------------
2-44444444444-33333333333-6666666666-4444444444-88888888-6666-99999999-88888888----
3----------------------------------------------------------------------------------
4----------------------------------------------------------------------------------
5----------------------------------------------------------------------------------
6----------------------------------------------------------------------------------
Tap to rate this tab
# A B C D E F G H I J K L M N O P Q R S T U V W X Y Z