Song name
# A B C D E F G H I J K L M N O P Q R S T U V W X Y Z

System Of A Down - Byob tab

Song: B.Y.O.B.                         
Band: System of a Down
Tabbed By: JohnnyR


      S S S S S S S S S S S S S S S S  
D#||----------------------------------|
A#||----------------------------------|
F#||----------------------------------|
C#||--7-0-0-0-0-0-0-0-7-0-0-8-0-0-7-0-|
G#||----------------------------------|
C#||----------------------------------|


  S S S S S S S S S S S S S S S S  
----------------------------------|
----------------------------------|
----------------------------------|
--7-0-0-0-0-0-0-0-7-0-0-8-0-0-7-0-|
----------------------------------|
----------------------------------|


  S S S S S S S S S S S S S S S S  
----------------------------------|
----------------------------------|
----------------------------------|
--7-0-0-0-0-0-0-0-7-0-0-8-0-0-7-0-|
----------------------------------|
----------------------------------|


  S S S S S S S S S S S S S S S S  
----------------------------------|
----------------------------------|
----------------------------------|
--7-0-0-8-0-0-7-0-7-0-0-8-0-0-7-0-|
----------------------------------|
----------------------------------|


  S S S S S S S S S S S S S S S S  
----------------------------------|
----------------------------------|
----------------------------------|
--7-0-0-8-0-0-7-0-7-0-0-8-0-0-7-0-|
----------------------------------|
----------------------------------|


  S S S S S S S S S S S S S S S S  
----------------------------------|
----------------------------------|
----------------------------------|
------7-----8-----7-----8-----7---|
--0-0-7-0-0-8-0-0-7-0-0-8-0-0-7-0-|
--0-0-7-0-0-8-0-0-7-0-0-8-0-0-7-0-|


  S S S S S S S S E.   E.   E   
-------------------------------|
-------------------------------|
------------------9---10---12--|
------7-----8-----9---10---12--|
--0-0-7-0-0-8-0-0-7----8---10--|
--0-0-7-0-0-8-0-0--------------|


  S S S S S S S S S S S S S S S S  
----------------------------------|
----------------------------------|
----------------------------------|
------7-----8-----7-----8-----7---|
--0-0-7-0-0-8-0-0-7-0-0-8-0-0-7-0-|
--0-0-7-0-0-8-0-0-7-0-0-8-0-0-7-0-|


  S S S S S S S S  E.   E.  E   
-------------------------------|
-------------------------------|
------------------12---10---9--|
------7-----8-----12---10---9--|
--0-0-7-0-0-8-0-0-10----8---7--|
--0-0-7-0-0-8-0-0--------------|


  S S S S S S S S S S S S S S S S  
----------------------------------|
----------------------------------|
----------------------------------|
------7-----8-----7-----8-----7---|
--0-0-7-0-0-8-0-0-7-0-0-8-0-0-7-0-|
--0-0-7-0-0-8-0-0-7-0-0-8-0-0-7-0-|


  S S S S S S S S E.   E.   E   
-------------------------------|
-------------------------------|
------------------9---10---12--|
------7-----8-----9---10---12--|
--0-0-7-0-0-8-0-0-7----8---10--|
--0-0-7-0-0-8-0-0--------------|


  S S S S S S S S S S S S S S S S  
----------------------------------|
----------------------------------|
----------------------------------|
------7-----8-----7-----8-----7---|
--0-0-7-0-0-8-0-0-7-0-0-8-0-0-7-0-|
--0-0-7-0-0-8-0-0-7-0-0-8-0-0-7-0-|


  S S S S S S S S  E.   E.  E     W                 
-------------------------------|-------------------|
-------------------------------|-------------------|
------------------12---10---9--|-------------------|
------7-----8-----12---10---9--|-------------------|
--0-0-7-0-0-8-0-0-10----8---7--|-------------------|
--0-0-7-0-0-8-0-0--------------|-------------------|


  S S S S S S S S S S S S    S S S S S S E.   E.   
--------------------------|-----------------------|
--------------------------|-----------------------|
--------------------------|------------------10---|
--------------------------|------------------10---|
--------------------------|-------------------8---|
--7-0-0-8-0-0-7-0-0-8-0-0-|--7-0-0-8-0-0-7--------|


  S S S S S S S S S S S S     Q.      E.  E.   
--------------------------|-------------------|
--------------------------|-------------------|
--------------------------|--12------10---9---|
--------------------------|--12------10---9---|
--------------------------|--10-------8---7---|
--7-0-0-8-0-0-7-0-0-8-0-0-|-------------------|


  S S S S S S S S S S S S    S S S S S S E.   E.   
--------------------------|-----------------------|
--------------------------|-----------------------|
--------------------------|------------------10---|
--------------------------|------------------10---|
--------------------------|-------------------8---|
--7-0-0-8-0-0-7-0-0-8-0-0-|--7-0-0-8-0-0-7--------|


  S S S S S S S S S S S S     Q.      E.  E.   
--------------------------|-------------------|
--------------------------|-------------------|
--------------------------|--12------10---9---|
--------------------------|--12------10---9---|
--------------------------|--10-------8---7---|
--7-0-0-8-0-0-7-0-0-8-0-0-|-------------------|


  S S S S S S S S S S S S    S S S S S S S S S S S S  
--------------------------|--------------------------|
--------------------------|--------------------------|
--------------------------|--------------------------|
--------------------------|--------------------------|
--------------------------|--------------------------|
--7-0-0-8-0-0-7-0-0-8-0-0-|--7-0-0-8-0-0-7-0-0-8-0-0-|


  S S S S S S S S S S S S    S S S S S S E.   E.   
--------------------------|-----------------------|
--------------------------|-----------------------|
--------------------------|------------------10---|
--------------------------|------------------10---|
--------------------------|-------------------8---|
--7-0-0-8-0-0-7-0-0-8-0-0-|--7-0-0-8-0-0-7--------|


  S S S S S S S S S S S S    S S S S S S S S S S S S  
--------------------------|--------------------------|
--------------------------|--------------------------|
--------------------------|--------------------------|
--------------------------|--------------------------|
--------------------------|--------------------------|
--7-0-0-8-0-0-7-0-0-8-0-0-|--7-0-0-8-0-0-7-0-0-8-0-0-|


  S S S S S S S S S S S S     Q.      Q    S T T  
--------------------------|----------------------|
--------------------------|----------------------|
--------------------------|--12------10----L-L-L-|
--------------------------|--12------10----L-L-L-|
--------------------------|--10-------8----L-L-L-|
--7-0-0-8-0-0-7-0-0-8-0-0-|----------------------|


                 PM PM PM PM PM PM PM  
  S S E  E  E  S S  S  S  S  S  S  S   
--------------------------------------|
--------------------------------------|
--------------------------------------|
--------------------------------------|
--2-3-0-----0----0--2--3--5--3--2--0--|
--2-3-0-----0----0--2--3--5--3--2--0--|


  PM PM                          
  S  S  E  E  E  S S S S S S E   
--------------------------------|
--------------------------------|
--------5-----5-----------------|
--------5-----5----------3-2-0--|
--2--0--3-----3----0-3-0--------|
--2--0--------------------------|


  PM PM                           
  S  S  E  E  E  S S S S S S S S  
---------------------------------|
---------------------------------|
---------------------------------|
---------------------------------|
--0--0--0-----0----0-5-7-8-7-5-3-|
--0--0--0-----0----0-5-7-8-7-5-3-|


  S S E  E  E     H         
---------------------------|
---------------------------|
---------------------------|
---------------------------|
--5-3-2-----3brb--L--------|
--5-3-2--------------------|


  E  S S E  S S E  S S E  S S  
------------------------------|
-----6------6------6------6---|
-----7------7------7------7---|
-----7------7------7------7---|
-----5------5------5------5---|
------------------------------|


  E  S S E  S S E  S S E  S S  
------------------------------|
-----5------5------5------5---|
-----5------5------5------5---|
-----5------5------5------5---|
-----3------3------3------3---|
------------------------------|


  E  S S E  S E  S S S S S S S  
-------------------------------|
-----6------6------------------|
-----7------7------------------|
-----7------7------------------|
-----5------5------------------|
-----------------0-5-7-8-7-5-3-|


  S S E  E  E     H         
---------------------------|
---------------------------|
---------------------------|
---------------------------|
------------3brb--L--------|
--5-3-2--------------------|


  E  S S E  S S E  S S E  S S  
------------------------------|
-----6------6------6------6---|
-----7------7------7------7---|
-----7------7------7------7---|
-----5------5------5------5---|
------------------------------|


  E  S S E  S S E  S S E  S S  
------------------------------|
-----5------5------5------5---|
-----5------5------5------5---|
-----5------5------5------5---|
-----3------3------3------3---|
------------------------------|


  E  S S E  S E  S S S S S S S  
-------------------------------|
-----6------6------------------|
-----7------7------------------|
-----7------7------------------|
-----5------5------------------|
-----------------0-5-7-8-7-5-3-|


  S S E  E  E     H           S S S S S S S S S S S S  
---------------------------|--------------------------|
---------------------------|--------------------------|
---------------------------|--------------------------|
---------------------------|--------------------------|
------------3brb--L--------|--------------------------|
--5-3-2--------------------|--7-0-0-8-0-0-7-0-0-8-0-0-|


  S S S S S S S S S S S S    S S S S S S S S S S S S  
--------------------------|--------------------------|
--------------------------|--------------------------|
--------------------------|--------------------------|
--------------------------|--------------------------|
--------------------------|--------------------------|
--7-0-0-8-0-0-7-0-0-8-0-0-|--7-0-0-8-0-0-7-0-0-8-0-0-|


  S S S S S S E.   E.     S S S S S S S S S S S S  
-----------------------|--------------------------|
-----------------------|--------------------------|
------------------10---|--------------------------|
------------------10---|--------------------------|
-------------------8---|--------------------------|
--7-0-0-8-0-0-7--------|--7-0-0-8-0-0-7-0-0-8-0-0-|


  S S S S S S S S S S S S    S S S S S S S S S S S S  
--------------------------|--------------------------|
--------------------------|--------------------------|
--------------------------|--------------------------|
--------------------------|--------------------------|
--------------------------|--------------------------|
--7-0-0-8-0-0-7-0-0-8-0-0-|--7-0-0-8-0-0-7-0-0-8-0-0-|


   Q.      E.  E.     S S S S S S S S S S S S  
-------------------|--------------------------|
-------------------|--------------------------|
--12------10---9---|--------------------------|
--12------10---9---|--------------------------|
--10-------8---7---|--------------------------|
-------------------|--7-0-0-8-0-0-7-0-0-8-0-0-|


  S S S S S S E.   E.     S S S S S S S S S S S S  
-----------------------|--------------------------|
-----------------------|--------------------------|
------------------10---|--------------------------|
------------------10---|--------------------------|
-------------------8---|--------------------------|
--7-0-0-8-0-0-7--------|--7-0-0-8-0-0-7-0-0-8-0-0-|


   Q.      E.  E.     S S S S S S S S S S S S  
-------------------|--------------------------|
-------------------|--------------------------|
--12------10---9---|--------------------------|
--12------10---9---|--------------------------|
--10-------8---7---|--------------------------|
-------------------|--7-0-0-8-0-0-7-0-0-8-0-0-|


  S S S S S S E.   E.     S S S S S S S S S S S S  
-----------------------|--------------------------|
-----------------------|--------------------------|
------------------10---|--------------------------|
------------------10---|--------------------------|
-------------------8---|--------------------------|
--7-0-0-8-0-0-7--------|--7-0-0-8-0-0-7-0-0-8-0-0-|


  Q.     Q    S T T  
--------------------|
--------------------|
--------------------|
--5------3----L-L-L-|
--5------3----L-L-L-|
--5------3----L-L-L-|


                 PM PM PM PM PM PM PM  
  S S E  E  E  S S  S  S  S  S  S  S   
--------------------------------------|
--------------------------------------|
--------------------------------------|
--------------------------------------|
--2-3-0-----0----0--2--3--5--3--2--0--|
--2-3-0-----0----0--2--3--5--3--2--0--|


  PM PM                          
  S  S  E  E  E  S S S S S S E   
--------------------------------|
--------------------------------|
--------5-----5-----------------|
--------5-----5----------3-2-0--|
--2--0--3-----3----0-3-0--------|
--2--0--------------------------|


  PM PM                           
  S  S  E  E  E  S S S S S S S S  
---------------------------------|
---------------------------------|
---------------------------------|
---------------------------------|
--0--0--0-----0----0-5-7-8-7-5-3-|
--0--0--0-----0----0-5-7-8-7-5-3-|


  S S E  E  E     H         
---------------------------|
---------------------------|
---------------------------|
---------------------------|
--5-3-2-----3brb--L--------|
--5-3-2--------------------|


  E  S S E  S S E  S S E  S S  
------------------------------|
-----6------6------6------6---|
-----7------7------7------7---|
-----7------7------7------7---|
-----5------5------5------5---|
------------------------------|


  E  S S E  S S E  S S E  S S  
------------------------------|
-----5------5------5------5---|
-----5------5------5------5---|
-----5------5------5------5---|
-----3------3------3------3---|
------------------------------|


  E  S S E  S E  S S S S S S S  
-------------------------------|
-----6------6------------------|
-----7------7------------------|
-----7------7------------------|
-----5------5------------------|
-----------------0-5-7-8-7-5-3-|


  S S E  E  E     H         
---------------------------|
---------------------------|
---------------------------|
---------------------------|
------------3brb--L--------|
--5-3-2--------------------|


  E  S S E  S S E  S S E  S S  
------------------------------|
-----6------6------6------6---|
-----7------7------7------7---|
-----7------7------7------7---|
-----5------5------5------5---|
------------------------------|


  E  S S E  S S E  S S E  S S  
------------------------------|
-----5------5------5------5---|
-----5------5------5------5---|
-----5------5------5------5---|
-----3------3------3------3---|
------------------------------|


  E  S S E  S E  S S S S S S S  
-------------------------------|
-----6------6------------------|
-----7------7------------------|
-----7------7------------------|
-----5------5------------------|
-----------------0-5-7-8-7-5-3-|


  S S E  E  E     H         
---------------------------|
---------------------------|
---------------------------|
---------------------------|
------------3brb--L--------|
--5-3-2--------------------|


  E  S S E  S S E  S S E  S S  
------------------------------|
-----6------6------6------6---|
-----7------7------7------7---|
-----7------7------7------7---|
-----5------5------5------5---|
------------------------------|


  E  S S E  S S E  S S E  S S  
------------------------------|
-----5------5------5------5---|
-----5------5------5------5---|
-----5------5------5------5---|
-----3------3------3------3---|
------------------------------|


  E  S S E  S E  S S S S S S S  
-------------------------------|
-----6------6------------------|
-----7------7------------------|
-----7------7------------------|
-----5------5------------------|
-----------------0-5-7-8-7-5-3-|


  S S E  E  E     H         
---------------------------|
---------------------------|
---------------------------|
---------------------------|
------------3brb--L--------|
--5-3-2--------------------|


  E  S S E  S S E  S S E  S S  
------------------------------|
-----6------6------6------6---|
-----7------7------7------7---|
-----7------7------7------7---|
-----5------5------5------5---|
------------------------------|


  E  S S E  S S E  S S E  S S  
------------------------------|
-----5------5------5------5---|
-----5------5------5------5---|
-----5------5------5------5---|
-----3------3------3------3---|
------------------------------|


  E  S S E  S E  S S S S S S S  
-------------------------------|
-----6------6------------------|
-----7------7------------------|
-----7------7------------------|
-----5------5------------------|
-----------------0-5-7-8-7-5-3-|


  S S E  E  E     H         
---------------------------|
---------------------------|
---------------------------|
---------------------------|
------------3brb--L--------|
--5-3-2--------------------|


  E  E  S S S S  S S S S S S S S  
---------------------------------|
---------------------------------|
---------------------------------|
--5--7------7---10-----8-----7---|
--5--7--0-0-7-0-10-0-0-8-0-0-7-0-|
--5--7--0-0-7-0-10-0-0-8-0-0-7-0-|


  E  E  S S S S  S S S S S S S S  
---------------------------------|
---------------------------------|
---------------------------------|
--5--7------7---10-----8-----7---|
--5--7--0-0-7-0-10-0-0-8-0-0-7-0-|
--5--7--0-0-7-0-10-0-0-8-0-0-7-0-|


  E  E  S S S S  S S S S S S S S  
---------------------------------|
---------------------------------|
---------------------------------|
--5--7------7---10-----8-----7---|
--5--7--0-0-7-0-10-0-0-8-0-0-7-0-|
--5--7--0-0-7-0-10-0-0-8-0-0-7-0-|


  E  E  S S S S  S S S S S S S S  
---------------------------------|
---------------------------------|
---------------------------------|
--5--7------7---10-----8-----7---|
--5--7--0-0-7-0-10-0-0-8-0-0-7-0-|
--5--7--0-0-7-0-10-0-0-8-0-0-7-0-|


  E  E  S S S S  S S S S S S S S  
---------------------------------|
---------------------------------|
---------------------------------|
--5--7------7---10-----8-----7---|
--5--7--0-0-7-0-10-0-0-8-0-0-7-0-|
--5--7--0-0-7-0-10-0-0-8-0-0-7-0-|


  E  E  S S S S  S S S S S S S S  
---------------------------------|
---------------------------------|
---------------------------------|
--5--7------7---10-----8-----7---|
--5--7--0-0-7-0-10-0-0-8-0-0-7-0-|
--5--7--0-0-7-0-10-0-0-8-0-0-7-0-|


  E  E  S S S S  S S S S S S S S  
---------------------------------|
---------------------------------|
---------------------------------|
--5--7------7---10-----8-----7---|
--5--7--0-0-7-0-10-0-0-8-0-0-7-0-|
--5--7--0-0-7-0-10-0-0-8-0-0-7-0-|


  E  E  S S S S  S S S S S S S S  
---------------------------------|
---------------------------------|
---------------------------------|
--5--7------7---10-----8-----7---|
--5--7--0-0-7-0-10-0-0-8-0-0-7-0-|
--5--7--0-0-7-0-10-0-0-8-0-0-7-0-|


  S S S S S S S S S S S S S S S S  
----------------------------------|
----------------------------------|
--7-7-7-7-7-7-7-7-----------------|
--7-7-7-7-7-7-7-7-8-8-8-8-8-8-8-8-|
--5-5-5-5-5-5-5-5-8-8-8-8-8-8-8-8-|
------------------8-8-8-8-8-8-8-8-|


  S S S S S S S S S S S S S S S S  
----------------------------------|
----------------------------------|
----------------------------------|
--7-7-7-7-7-7---------------------|
--7-7-7-7-7-7-0-0-7-0-0-8-0-0-7-0-|
--7-7-7-7-7-7---------------------|


  S S S S S S S S S S S S S S S S  
----------------------------------|
----------------------------------|
--7-7-7-7-7-7-7-7-----------------|
--7-7-7-7-7-7-7-7-8-8-8-8-8-8-8-8-|
--5-5-5-5-5-5-5-5-8-8-8-8-8-8-8-8-|
------------------8-8-8-8-8-8-8-8-|


  S S S S S S S S S S S S S S S S  
----------------------------------|
----------------------------------|
----------------------------------|
--7-7-7-7-7-7---------------------|
--7-7-7-7-7-7-0-0-7-0-0-8-0-0-7-0-|
--7-7-7-7-7-7---------------------|


  S S S S S S S S S S S S S S S S  
----------------------------------|
----------------------------------|
--7-7-7-7-7-7-7-7-----------------|
--7-7-7-7-7-7-7-7-8-8-8-8-8-8-8-8-|
--5-5-5-5-5-5-5-5-8-8-8-8-8-8-8-8-|
------------------8-8-8-8-8-8-8-8-|


  S S S S S S S S S S S S S S S S  
----------------------------------|
----------------------------------|
----------------------------------|
--7-7-7-7-7-7---------------------|
--7-7-7-7-7-7-0-0-7-0-0-8-0-0-7-0-|
--7-7-7-7-7-7---------------------|


  S S S S S S S S S S S S S S S S  
----------------------------------|
----------------------------------|
--7-7-7-7-7-7-7-7-----------------|
--7-7-7-7-7-7-7-7-8-8-8-8-8-8-8-8-|
--5-5-5-5-5-5-5-5-8-8-8-8-8-8-8-8-|
------------------8-8-8-8-8-8-8-8-|


  S S S S S S S S S S S S S S S S  
----------------------------------|
----------------------------------|
----------------------------------|
--7-7-7-7-7-7---------------------|
--7-7-7-7-7-7-0-0-7-0-0-8-0-0-7-0-|
--7-7-7-7-7-7---------------------|


  S S S S S S S S S S S S S S S S  
----------------------------------|
----------------------------------|
----------------------------------|
----------------------------------|
--7-0-0-0-0-0-0-0-7-0-0-8-0-0-7-0-|
----------------------------------|


  S S S S S S S S S S S S S S S S  
----------------------------------|
----------------------------------|
----------------------------------|
----------------------------------|
--7-0-0-0-0-0-0-0-7-0-0-8-0-0-7-0-|
----------------------------------|


  E  E  Q    H           S S S S S S S S S S S S  
----------------------|--------------------------|
----------------------|--------------------------|
----------------------|--------------------------|
----------------------|--------------------------|
--7-------------------|--------------------------|
----------------------|--7-0-0-8-0-0-7-0-0-8-0-0-|


  S S S S S S S S S S S S    S S S S S S S S S S S S  
--------------------------|--------------------------|
--------------------------|--------------------------|
--------------------------|--------------------------|
--------------------------|--------------------------|
--------------------------|--------------------------|
--7-0-0-8-0-0-7-0-0-8-0-0-|--7-0-0-8-0-0-7-0-0-8-0-0-|


  S S S S S S E.   E.     S S S S S S S S S S S S  
-----------------------|--------------------------|
-----------------------|--------------------------|
------------------10---|--------------------------|
------------------10---|--------------------------|
-------------------8---|--------------------------|
--7-0-0-8-0-0-7--------|--7-0-0-8-0-0-7-0-0-8-0-0-|


  S S S S S S S S S S S S    S S S S S S S S S S S S  
--------------------------|--------------------------|
--------------------------|--------------------------|
--------------------------|--------------------------|
--------------------------|--------------------------|
--------------------------|--------------------------|
--7-0-0-8-0-0-7-0-0-8-0-0-|--7-0-0-8-0-0-7-0-0-8-0-0-|


   Q.      E.  E.     S S S S S S S S S S S S  
-------------------|--------------------------|
-------------------|--------------------------|
--12------10---9---|--------------------------|
--12------10---9---|--------------------------|
--10-------8---7---|--------------------------|
-------------------|--7-0-0-8-0-0-7-0-0-8-0-0-|


  S S S S S S E.   E.     S S S S S S S S S S S S  
-----------------------|--------------------------|
-----------------------|--------------------------|
------------------10---|--------------------------|
------------------10---|--------------------------|
-------------------8---|--------------------------|
--7-0-0-8-0-0-7--------|--7-0-0-8-0-0-7-0-0-8-0-0-|


   Q.      E.  E.     S S S S S S S S S S S S  
-------------------|--------------------------|
-------------------|--------------------------|
--12------10---9---|--------------------------|
--12------10---9---|--------------------------|
--10-------8---7---|--------------------------|
-------------------|--7-0-0-8-0-0-7-0-0-8-0-0-|


  S S S S S S E.   E.     S S S S S S S S S S S S  
-----------------------|--------------------------|
-----------------------|--------------------------|
------------------10---|--------------------------|
------------------10---|--------------------------|
-------------------8---|--------------------------|
--7-0-0-8-0-0-7--------|--7-0-0-8-0-0-7-0-0-8-0-0-|


  Q.     Q    S T T  
--------------------|
--------------------|
--------------------|
--5------3----L-L-L-|
--5------3----L-L-L-|
--5------3----L-L-L-|


                 PM PM PM PM PM PM PM  
  S S E  E  E  S S  S  S  S  S  S  S   
--------------------------------------|
--------------------------------------|
--------------------------------------|
--------------------------------------|
--2-3-0-----0----0--2--3--5--3--2--0--|
--2-3-0-----0----0--2--3--5--3--2--0--|


  PM PM                          
  S  S  E  E  E  S S S S S S E   
--------------------------------|
--------------------------------|
--------5-----5-----------------|
--------5-----5----------3-2-0--|
--2--0--3-----3----0-3-0--------|
--2--0--------------------------|


  PM PM                           
  S  S  E  E  E  S S S S S S S S  
---------------------------------|
---------------------------------|
---------------------------------|
---------------------------------|
--0--0--0-----0----0-5-7-8-7-5-3-|
--0--0--0-----0----0-5-7-8-7-5-3-|


  S S E  E  E     H         
---------------------------|
---------------------------|
---------------------------|
---------------------------|
--5-3-2-----3brb--L--------|
--5-3-2--------------------|


  E  S S E  S S E  S S E  S S  
------------------------------|
-----6------6------6------6---|
-----7------7------7------7---|
-----7------7------7------7---|
-----5------5------5------5---|
------------------------------|


  E  S S E  S S E  S S E  S S  
------------------------------|
-----5------5------5------5---|
-----5------5------5------5---|
-----5------5------5------5---|
-----3------3------3------3---|
------------------------------|


  E  S S E  S E  S S S S S S S  
-------------------------------|
-----6------6------------------|
-----7------7------------------|
-----7------7------------------|
-----5------5------------------|
-----------------0-5-7-8-7-5-3-|


  S S E  E  E     H         
---------------------------|
---------------------------|
---------------------------|
---------------------------|
------------3brb--L--------|
--5-3-2--------------------|


  E  S S E  S S E  S S E  S S  
------------------------------|
-----6------6------6------6---|
-----7------7------7------7---|
-----7------7------7------7---|
-----5------5------5------5---|
------------------------------|


  E  S S E  S S E  S S E  S S  
------------------------------|
-----5------5------5------5---|
-----5------5------5------5---|
-----5------5------5------5---|
-----3------3------3------3---|
------------------------------|


  E  S S E  S E  S S S S S S S  
-------------------------------|
-----6------6------------------|
-----7------7------------------|
-----7------7------------------|
-----5------5------------------|
-----------------0-5-7-8-7-5-3-|


  S S E  E  E     H         
---------------------------|
---------------------------|
---------------------------|
---------------------------|
------------3brb--L--------|
--5-3-2--------------------|


  E  S S E  S S E  S S E  S S  
------------------------------|
-----6------6------6------6---|
-----7------7------7------7---|
-----7------7------7------7---|
-----5------5------5------5---|
------------------------------|


  E  S S E  S S E  S S E  S S  
------------------------------|
-----5------5------5------5---|
-----5------5------5------5---|
-----5------5------5------5---|
-----3------3------3------3---|
------------------------------|


  E  S S E  S E  S S S S S S S  
-------------------------------|
-----6------6------------------|
-----7------7------------------|
-----7------7------------------|
-----5------5------------------|
-----------------0-5-7-8-7-5-3-|


  S S E  E  E     H         
---------------------------|
---------------------------|
---------------------------|
---------------------------|
------------3brb--L--------|
--5-3-2--------------------|


  E  S S E  S S E  S S E  S S  
------------------------------|
-----6------6------6------6---|
-----7------7------7------7---|
-----7------7------7------7---|
-----5------5------5------5---|
------------------------------|


  E  S S E  S S E  E  E  E   
----------------------------|
-----5------5------5--5--5--|
-----5------5------5--5--5--|
-----5------5------5--5--5--|
-----3------3------3--3--3--|
----------------------------|


  S S S S S S S S S S S S S S S S  
----------------------------------|
----------------------------------|
--7-7-7-7-7-7-7-7-----------------|
--7-7-7-7-7-7-7-7-8-8-8-8-8-8-8-8-|
--5-5-5-5-5-5-5-5-8-8-8-8-8-8-8-8-|
------------------8-8-8-8-8-8-8-8-|


  S S S S S S S S S S S S S S S S  
----------------------------------|
----------------------------------|
----------------------------------|
--7-7-7-7-7-7---------------------|
--7-7-7-7-7-7-0-0-7-0-0-8-0-0-7-0-|
--7-7-7-7-7-7---------------------|


  S S S S S S S S S S S S S S S S  
----------------------------------|
----------------------------------|
--7-7-7-7-7-7-7-7-----------------|
--7-7-7-7-7-7-7-7-8-8-8-8-8-8-8-8-|
--5-5-5-5-5-5-5-5-8-8-8-8-8-8-8-8-|
------------------8-8-8-8-8-8-8-8-|


  S S S S S S S S S S S S S S S S  
----------------------------------|
----------------------------------|
----------------------------------|
--7-7-7-7-7-7---------------------|
--7-7-7-7-7-7-0-0-7-0-0-8-0-0-7-0-|
--7-7-7-7-7-7---------------------|


  S S S S S S S S S S S S S S S S  
----------------------------------|
----------------------------------|
--7-7-7-7-7-7-7-7-----------------|
--7-7-7-7-7-7-7-7-8-8-8-8-8-8-8-8-|
--5-5-5-5-5-5-5-5-8-8-8-8-8-8-8-8-|
------------------8-8-8-8-8-8-8-8-|


  S S S S S S S S S S S S S S S S  
----------------------------------|
----------------------------------|
----------------------------------|
--7-7-7-7-7-7---------------------|
--7-7-7-7-7-7-0-0-7-0-0-8-0-0-7-0-|
--7-7-7-7-7-7---------------------|


  S S S S S S S S S S S S S S S S  
----------------------------------|
----------------------------------|
--7-7-7-7-7-7-7-7-----------------|
--7-7-7-7-7-7-7-7-8-8-8-8-8-8-8-8-|
--5-5-5-5-5-5-5-5-8-8-8-8-8-8-8-8-|
------------------8-8-8-8-8-8-8-8-|


  S S S S S S S S S S S S S S S S  
----------------------------------|
----------------------------------|
----------------------------------|
--7-7-7-7-7-7---------------------|
--7-7-7-7-7-7-0-0-7-0-0-8-0-0-7-0-|
--7-7-7-7-7-7---------------------|


  S S S S S S S S S S S S S S S S  
----------------------------------|
----------------------------------|
----------------------------------|
----------------------------------|
--7-0-0-0-0-0-0-0-7-0-0-8-0-0-7-0-|
----------------------------------|


  S S S S S S S S S S S S S S S S  
----------------------------------|
----------------------------------|
----------------------------------|
----------------------------------|
--7-0-0-0-0-0-0-0-7-0-0-8-0-0-7-0-|
----------------------------------|


   Tremolo pick while sliding down                      
   S                               S   S   S   S  S  S  
--------------------------------------------------------
--------------------------------------------------------
--------------------------------------------------------
--------------------------------------------------------
--13S-----------------------------12S-11S-11S-10S-9S-8S-
--------------------------------------------------------


  S S S S S S S S S S S S S S S S  
----------------------------------|
----------------------------------|
----------------------------------|
----------------------------------|
--7-0-0-0-0-0-0-0-7-0-0-0-0-0-0-0-|
----------------------------------|


  S S S S S S S S S S S S S S S S  
----------------------------------|
----------------------------------|
----------------------------------|
----------------------------------|
--7-0-0-0-0-0-0-0-7-0-0-8-0-0-7-0-|
----------------------------------|


  S S S S S S S S S S S S S S S S  
----------------------------------|
----------------------------------|
----------------------------------|
----------------------------------|
--7-0-0-0-0-0-0-0-7-0-0-0-0-0-0-0-|
----------------------------------|


  S S S S S S S S S S S S S S S S  
----------------------------------|
----------------------------------|
----------------------------------|
----------------------------------|
--7-0-0-0-0-0-0-0-7-0-0-8-0-0-7-0-|
----------------------------------|


  S S S S S S S S S S S S S S S S  
----------------------------------|
----------------------------------|
----------------------------------|
----------------------------------|
--7-0-0-0-0-0-0-0-7-0-0-0-0-0-0-0-|
----------------------------------|


  S S S S S S S S S S S S S S S S  
----------------------------------|
----------------------------------|
----------------------------------|
----------------------------------|
--7-0-0-0-0-0-0-0-7-0-0-8-0-0-7-0-|
----------------------------------|


  S S S S S S S S S S S S S S S S  
----------------------------------|
----------------------------------|
----------------------------------|
----------------------------------|
--7-0-0-8-0-0-7-0-7-0-0-8-0-0-7-0-|
----------------------------------|


  S S S S S S S S S S S S S S E    
---------------------------------||
---------------------------------||
---------------------------------||
---------------------------------||
--7-0-0-8-0-0-7-0-7-0-0-8-0-0-7--||
---------------------------------||




Duration Legend
---------------
W - whole
H - half
Q - quarter
E - 8th
S - 16th
T - 32nd
X - 64th
. - note dotted
|-n-|  - n-tuplets


Tablature Legend
----------------
L - tied note
x - dead note
g - grace note
(n) - ghost note
> - accentuded note
NH - natural harmonic
AH - artificial harmonic
TH - tapped harmonic
SH - semi harmonic
PH - pitch harmonic
h - hammer on
p - pull off
b - bend
br - bendRelease
pb - preBend
pbr - preBendRelease
brb - bendReleaseBend
\n/ - tremolo bar dip
\n - tremolo bar dive
-/n - tremolo bar Release up
/n\ - tremolo bar inverted dip
/n - tremolo bar return
-\n - tremolo bar Release down
S - shift slide
s - legato slide
/ -  slide into from below or out of upwards
\ -  slide into from above or out of downwards
~ - vibrato
W - wide vibrato
tr - trill
TP - tremolo picking
T - tapping
S - slap
P - pop
< - fade in
^ - brush up
v - brush down
Tap to rate this tab
 
# A B C D E F G H I J K L M N O P Q R S T U V W X Y Z