Guitaretab - guitar tabs
Song name
# A B C D E F G H I J K L M N O P Q R S T U V W X Y Z
Home / T / Tad / Loser tab

Tad - Loser tab

-------------------------------------------------------------------------------
                                  LOSER  Tad
-------------------------------------------------------------------------------

Tabbed by: brian_s
Email: branimir.sremec@kc.t-com.hr


INTRO:
e------------------------------------------------|
B------------------------------------------------|
G---5--4-4-4-4-4-4-4-4-4--x--4-4-4-4-4-4-4-4-4---| 2x
D---5--4-4-4-4-4-4-4-4-4--x--4-4-4-4-4-4-4-4-4---|
A---3--2-2-2-2-2-2-2-2-2--x--2-2-2-2-2-2-2-2-2---|
E------------------------------------------------|


VERSE 1:
e-----------------------------------------------------|
B-----------------------------------------------------|
G---------------5-5-5-5-5-5---7-7---------------------|  4x
D---2-2-2-2-2---5-5-5-5-5-5---7-7---5-5---2-2-2-2-2---|
A---2-2-2-2-2---3-3-3-3-3-3---5-5---5-5---2-2-2-2-2---|
E---0-0-0-0-0-----------------------3-3---0-0-0-0-0---|


CHORUS:
Dual guitars:
1st guitar:
e----------------------------------------------|
B----------------------------------------------|
G---7-7-7-7-7-7-7-7-7------------5-5-5-5-5-5---|  2x
D---7-7-7-77-7-7-7-7---2-2-2-2--5-5-5-5-5-5---|
A---5-5-5-55-5-5-5-5---2-2-2-2--3-3-3-3-3-3---|
E-----------------------0-0-0-0----------------|

2nd guitar:
e----------------------------------------------|
B----------------------------------------------|
G----------------------------------------------|  2x
D----------------------------------------------|
A------------12p10h12--------------------------|
E----------------------------------------------|


INTRO 
Intro riff 2x


VERSE 2:
Verse riff 4x


CHORUS:
Chorus riff 2x

[ Tab from: http://www.guitaretab.com/t/tad/158881.html ]
BRIDGE:   palm mute every chord
e---------------------------------|
B---------------------------------|
G---------------------------------| 2x
D---2-2---5-5-5---7-7-7-7-7-7-7---|
A---2-2---5-5-5---7-7-7-7-7-7-7---|
E---0-0---3-3-3---5-5-5-5-5-5-5---|

e-------------------------------------------------------|
B-------------------------------------------------------|
G-------------------------------------------------------|
D---2-2---5-5-5---7-7-7-7-7-7-7-------------------------|
A---2-2---5-5-5---7-7-7-7-7-7-7---5h6-5h6-5h6-5h6-5h6---|
E---0-0---3-3-3---5-5-5-5-5-5-5-------------------------|

e--------------------------------------|
B--------------------------------------|
G---------------------------------5b---|
D---2-2---5-5-5---7-7-7-7-7-7-7--------|
A---2-2---5-5-5---7-7-7-7-7-7-7--------|
E---0-0---3-3-3---5-5-5-5-5-5-5--------|

e---------------------------------|
B---------------------------------|
G---------------------------------|  2x
D---2-2---5-5-5---7-7-7-7-7-7-7---|
A---2-2---5-5-5---7-7-7-7-7-7-7---|
E---0-0---3-3-3---5-5-5-5-5-5-5---|

Dual guitar part:
1st guitar: 
e---------------------------------|
B---------------------------------|
G---------------------------------|  4x
D---2-2---5-5-5---7-7-7-7-7-7-7---|
A---2-2---5-5-5---7-7-7-7-7-7-7---|
E---0-0---3-3-3---5-5-5-5-5-5-5---|

2nd guitar:
e------------------------------|
B------------------------------|
G------------------------------| 4x
D---4-4--4-4-4-4-4-4-4-4-4h5---|
A------------------------------|
E------------------------------|


INTRO
Intro riff 4x


VERSE 3:
Verse riff 4x


CHORUS:
Chorus riff 2x


BRIDGE:
All the same except the dual guitar part is played 12x



p  =  pull off
h  =  hammer on
b  =  bend

Related for Loser tab