Guitaretab - guitar tabs
Song name
# A B C D E F G H I J K L M N O P Q R S T U V W X Y Z
Home / T / Tad / Dementia tab

Tad - Dementia tab

TAD
Song: Dementia
Album: Infrared Riding Hood
Tabbed by Anthony DePiano on October 26, 2007 (My birthday YEAH)

Tuning: Standard EADGBe

V = vibrato  hold note
x = mute string


VERSE:

Guitar I
   C                               E        D
e----------------------------------------------------|
B----------------------------------------------------|
G----------------------------------9--9-9-9-7--7-7-7-|
D-10--10-10-10-10--10--10-10-10-10-9--9-9-9-7--7-7-7-|
A-10--10-10-10-10--10--10-10-10-10-7--7-7-7-5--5-5-5-|
E--8---8--8--8--8---8---8--8--8--8-------------------|
   C                                G A A B  C B  A
e----------------------------------------------------|
B----------------------------------------------------|
G--5---5--5--5-5----5---5--5--5--5-------------------|
D--5---5--5--5-5----5---5--5--5--5--5-7-7-9-10-9v-7v-|
A--3---3--3--3-3----3---3--3--3--3-------------------|
E----------------------------------------------------|
[ Tab from: http://www.guitaretab.com/t/tad/97869.html ]
Guitar II
      C                             G
e-----8--8-8-------8--8-8-8---------3--3-3----3--3-3-3-|
B------------------------------------------------------|
G------------------------------------------------------|
D------------------------------------------------------|
A------------------------------------------------------|
E------------------------------------------------------|
      D                       G A A B  C B  A
e-----------------------------------------------|
B-----3--3-3-------3--3-3-3------------1--------|
G-----------------------------0-2-2-4----4v-2v--|
D-----------------------------------------------|
A-----------------------------------------------|
E-----------------------------------------------|

  Repeat VERSE till CHORUS

CHORUS:

Guitar I
   C    B    A     G    A B B  A  B B B  A B B  D  B B  B
e---------------------------------------------------------|
B---------------------------------------------------------|
G--5----4----2--------------------------------------------|
D--5----4----2-----5--------------------------------------|
A--3----2----0-----5----0-2-2--0--2-2-2--0-2-2--5--2-2--2-|
E------------------3--------------------------------------|
  Let  your self  free  flow

Guitar II
   C    B    A    G    A B B  A  B B B  A B B   D  B B  B
e---------------------------------------------------------|
B---------------------------------------------------------|
G---------------------------------------------------------|
D--10---9----7----5----7-9-9--7--9-9-9--7-9-9--12--9-9--9-|
A--10---9----7----5----x-x-x--x--x-x-x--x-x-x---x--x-x--x-|
E--8----7----5----3----5-7-7--5--7-7-7--5-7-7--10--7-7--7-|

Play 3 times

VERSE again

CHORUS

BRIDGE
   C               B
e-----------------------------------|
B-----------------------------------|
G--5-5-5-5-5-5-5-5-4-4-4-4-4-4-4-4--|
D--5-5-5-5-5-5-5-5-4-4-4-4-4-4-4-4--|
A--3-3-3-3-3-3-3-3-2-2-2-2-2-2-2-2--|
E-----------------------------------|
 Repeat this until it ends with 16 Cs  (x355xx)

Then do VERSE

End with
     C          B        C
e-----------------------------|
B-----------------------------|
G------------------------5v---|
D---10-10-10-10-9-9-9----5v---|
A------------------------3v---|
E-----------------------------|
Related for Dementia tab