Song name
# A B C D E F G H I J K L M N O P Q R S T U V W X Y Z

Takeharu Ishimoto - The Price Of Freedom tab

This is a very easy song...
But I'm not sure if it's 1--% correct...

First chords with acoustic: E, C, G, D...

e|-3--5--5/7--8\3--3--5--7--8--7--5--|
B|-----------------------------------|
G|-----------------------------------|
D|-----------------------------------|
A|-----------------------------------|
E|-----------------------------------|

Then electric comes in...

Played same as chords:
e|---------------------|
B|---------------------|
G|-9--9\5--5--------7--|
D|-9--9\5--5--5--5--7--|
A|-7--7\3--3--5--5--5--|
E|------------3--3-----|

Solo:
e|------------------------------------------------------------------|
B|------------------8--10--------------------------8--10------------|
G|-----------7--9-----------11b--9------------7--9---------11b--9---|
D|---7--9-----------------------------7--9--------------------------|
A|------------------------------------------------------------------|
E|------------------------------------------------------------------|

e|--------------------------------------------------------------------------|
B|-12/15--15--15--15-15--13--12--13--12---------------------------------/12-|
G|---------------------------------------14--12--11--12--11--12--11--12-----|
D|--------------------------------------------------------------------------|
A|--------------------------------------------------------------------------|
E|--------------------------------------------------------------------------|


And it goes back to acoustic I think...
Tap to rate this tab
# A B C D E F G H I J K L M N O P Q R S T U V W X Y Z