Song name
# A B C D E F G H I J K L M N O P Q R S T U V W X Y Z

Taking Back Sunday - New Again tab

Artist: Taking Back Sunday
Song: New Again
Album: New Again
Tabbed By: Matt Florio; myspace.com/mattflorio2
Email: Shempashland@yahoo.com

Hey guys!
This is a tab for New Again by TBS!
I know that this is correct, Ive spent a lot of time on it and even asked Matt Fazzi!
This is basically the whole song that he plays... the other guitarist basically uses
power chords. If you have any questions or comments feel free to contact me!
Thanks and Enjoy!

Tuning: Half Step Down

Intro
eb|---0~--------|
bb|---0~--------|
gb|---2~--------|
db|---4~--------|
ab|-------------|
eb|-------------|

Verse
eb|---0~--*0~--------------------|
bb|---0~--*0~--------------------|
gb|---2~--*4~--------------------|
db|---4~--*4~--------------------|
ab|------------------------------|
eb|------------------------------|
     "my dear what long arms.."
*play this chord here: "all the better..."

eb|---0~---0~---0~---------------|
bb|--10~---7~---5~---------------|
gb|---7~---6~---4~---------------|
db|---9~---7~---6~---------------|
ab|------------------------------|
eb|------------------------------|
"Slap my wrist..."

Pre Chorus

*that note is optional
eb|-----------------------------------|
bb|--*333333333333*-------------------|
gb|---444444222222--------------------|
db|---000000000000--------------------|
ab|---222222222222--------------------|
eb|-----------------------------------|
"what are we, what are we to do..."

Chorus
eb|---0--0--0-0--7---0--0--0-0--7------|
bb|---7--3--3/2--9---7--0--3/2--9------|
gb|---7--2--2-2--7---7--6--2-2--7------|
db|---0--0--2-2--9---0--7--2-2--9------|
ab|---7--2--0-0--7---7--5--0-0--7------|
eb|---0----------0---0----------0------|
"I am ready to be new again..."

eb|-----------------------|
bb|-----------------------|
gb|-----------------------|
db|-----------------------|
ab|--------99-----99------|
eb|---5-7-5--5-7-5--------|

Verse 2

*strum this chord going into the 2nd chorus
eb|------0---2-0---|--0~---2~--*0~-----|
bb|------5---2-0---|--5~---2~---0~-----|
gb|----2---2---2---|--2~---2~---2~-----|
db|---4-4-4-4--4---|--4~---4~---4~-----|
ab|----------------|-------------------|
eb|----------------|-------------------|

Chorus
eb|---0---0---0-0---7---0---0---0-0---7------|
bb|---7---3---3/2---9---7---0---3/2---9------|
gb|---7---2---2-2---7---7---6---2-2---7------|
db|---0---0---2-2---9---0---7---2-2---9------|
ab|---7---2---0-0---7---7---5---0-0---7------|
eb|---0-------------0---0-------------0------|
"I am ready to be new again..."

eb|------------------------|
bb|------------------------|
gb|------------------------|
db|------------------------|
ab|--------99-----99-------|
eb|---5-7-5--5-7-5---------|

Bridge
eb|----------2--------2---------|
bb|------5---2----5---2---------|
gb|----2--2--2--2--2--2---------|
db|---4-4--4-4-4-4--4-4---------|
ab|-----------------------------|
eb|-----------------------------|
"dont (dont) know (know) where ive been..."

*comes in right before the Chorus
eb|------------------------------|
bb|---77777777-------------------|
gb|---77777777--7p6--------------|
db|---00000000-----h7------------|
ab|---77777777-------99----------|
eb|------------------------------|
PM    ........

The rest of the song is basically the Chorus w/ one part
being the Chorus chords being held once each,
then back into the Chorus as it was the whole song.

End on this
eb|------------------------|
bb|------------------------|
gb|------------------------|
db|------------------------|
ab|--------99-----99-------|
eb|---5-7-5--5-7-5---------|
Tap to rate this tab
 
# A B C D E F G H I J K L M N O P Q R S T U V W X Y Z