Taking Back Sunday - Whats It Feel Like To Be A Ghost tab

-----------------------------------------------------------------------------
         Whats it feel like to be a ghost-taking back sunday
-------------------------------------------------------------------------------
Tabbed by italyguy

Tuned in Drop D
e
B
G
D
A
D


INTRO
e|--------------------------------------------------------------------]
B|--------------------------------------------------------------------]
G|--------------------------------------------------------------------]
D|-----4~----4---------4~------4--------------------------------------]
A|-----------------------------------4-------4-----4~-----4-----------]
D|--6------6---6-6-6---------6--6--2------2---2-2-2----2-----2--------]


e|--------------------------------------------------------------------]
B|--------------------------------------------------------------------]
G|--------------------------------------------------------------------]
D|-----4~----4---------4~------4--------------------------0~----------]
A|-----------------------------------4-------4-----b4~----0~----------]
D|--6------6---6-6-6---------6--6--2------2---2-2-2-------0~----------]


e|--------------------------------------------------------------------]
B|--------------------------------------------------------------------]
G|--------------------------------------------------------------------]
D|-----4~----4---------4~------4--------------------------------------]
A|-----------------------------------4-------4-----4~-----4-----------]
D|--6------6---6-6-6---------6--6--2------2---2-2-2----2-----2--------]


e|-------------------------------------------------------------------]
B|-------------------------------------------------------------------]
G|-------------------------------------------------------------------]
D|-----4~----4---------4~------4-------------------------3~-----0~---]
A|-----------------------------------4-------4-----b4~---3~-----0~---]
D|--6------6---6-6-6---------6--6--2------2---2-2-2------3~-----0~---]

Verse
e]-----------------------------------------------------------------]
B]-----------------------------------------------------------------]
G]-2-2-2-------2-2-2-------2-2-------------------------------------]
D]-2-2-2-3-3-3-2-2-2-3-3-3-2-2-3-3-5-5-5-5-5-5-5-5-5-5-5-5-5-5-5-5-] X4
A]-0-0-0-3-3-3-0-0-0-3-3-3-0-0-3-3-5-5-5-5-5-5-5-5-5-5-5-5-5-5-5-5-]
D]-------3-3-3-------3-3-3-----3-3-5-5-5-5-5-5-5-5-5-5-5-5-5-5-5-5-]
  ****************************************************************

         *******Muting

e]-------------]
B]-------------]
G]-------------]
D]-------------]
A]-----5---5~--]
D]---3---3-----]

Chorus
E]------------------------------------------]
B]------------------------------------------]
G]-13----\11--------------------------------]
D]--x-X8-\-x-X8-----------------------------]
A]-12----\9--------4~----4-------4~----4----]
D]---------------2-----2---2-2-2-----2---2--]

e]------------------------------------------]
B]------------------------------------------]
G]-13----\11--------------------------------]
D]--x-X8-\-x-X8----------------------3-0~---]
A]-12----\9--------4~----4-------4~--3-0~---]
D]---------------2-----2---2-2-2-----3-0~---]

e]------------------------------------------]
B]------------------------------------------]
G]-13----\11--------------------------------]
D]--x-X8-\-x-X8-----------------------------]
A]-12----\9--------4~----4-------4~----4----]
D]---------------2-----2---2-2-2-----2---2--]

e]------------------------------------------]
B]------------------------------------------]
G]-13----\11--------------------------------]
D]--x-X8-\-x-X8----------------------3-0~---]
A]-12----\9--------4~----4-------4~--3-0~---]
D]---------------2-----2---2-2-2-----3-0~---]

Verse
e]-----------------------------------------------------------------]
B]-----------------------------------------------------------------]
G]-2-2-2-------2-2-2-------2-2-------------------------------------]
D]-2-2-2-3-3-3-2-2-2-3-3-3-2-2-3-3-5-5-5-5-5-5-5-5-5-5-5-5-5-5-5-5-] X4
A]-0-0-0-3-3-3-0-0-0-3-3-3-0-0-3-3-5-5-5-5-5-5-5-5-5-5-5-5-5-5-5-5-]
D]-------3-3-3-------3-3-3-----3-3-5-5-5-5-5-5-5-5-5-5-5-5-5-5-5-5-]
  ****************************************************************

         *******Muting
e]-------------]
B]-------------]
G]-------------]
D]-------------]
A]-----5---5~--]
D]---3---3-----]

Chorus
e]------------------------------------------]
B]------------------------------------------]
G]-13----\11--------------------------------]
D]--x-X8-\-x-X8-----------------------------]
A]-12----\9--------4~----4-------4~----4----]
D]---------------2-----2---2-2-2-----2---2--]

e]------------------------------------------]
B]------------------------------------------]
G]-13----\11--------------------------------]
D]--x-X8-\-x-X8----------------------3-0~---]
A]-12----\9--------4~----4-------4~--3-0~---]
D]---------------2-----2---2-2-2-----3-0~---]

e]------------------------------------------]
B]------------------------------------------]
G]-13----\11--------------------------------]
D]--x-X8-\-x-X8-----------------------------]
A]-12----\9--------4~----4-------4~----4----]
D]---------------2-----2---2-2-2-----2---2--]

e]------------------------------------------]
B]------------------------------------------]
G]-13----\11--------------------------------]
D]--x-X8-\-x-X8----------------------3-0~---]
A]-12----\9--------4~----4-------4~--3-0~---]
D]---------------2-----2---2-2-2-----3-0~---]

BRIDGE

e|-----------2-------------------------------]
B|-------------0--0~-------------------------]
G|--4~-----------3------8~-------------------]
D|--4~----4-------------9~-------------------]
A|--2~------------------7~-------------------]
D|-------------------------------------------]


e|--------------------------------------------------------------------]
B|------4-4-4-4-4-4-5~-2-2-2-2-2-2--0~-7p5-7p5-0~-7p5-7p5-0~----------]
G|--4~----------------------------------------------------------------]
D|--4~----------------------------------------------------------------]
A|--2~----------------------------------------------------------------]
D|--------------------------------------------------------------------]
X2 or 3



e|--------------------------------------------------------------------]
B|--------------------------------------------------------------------]
G|-4-4-4-4-6-6-6-6-8-8-8-8-9-9-9-9-8-8-8-8-9-9-9-9-11111111-12121212--]
D|-x-x-x-x-x-x-x-x-x-x-x-x-x-x-x-x-x-x-x-x-x-x-x-x-x-x-x-x--x-x-x-x---]
A|-2-2-2-2-4-4-4-4-6-6-6-6-7-7-7-7-6-6-6-6-7-7-7-7-9-9-9-9--10101010--]
D|--------------------------------------------------------------------]


e|-------------------------------------------------------------]
B|-------------------------------------------------------------]
G|-------------------------------------------------------------]
D|----4~--4------4~---4----4---4-----4------0~-----------------]
A|------------------------------------------0~-----------------]
D|--6---6--6-6-6---6---6-6---6--6-6-6-------0~-----------------]

Chorus
e]------------------------------------------]
B]------------------------------------------]
G]-13----\11--------------------------------]
D]--x-X8-\-x-X8-----------------------------]
A]-12----\9--------4~----4-------4~----4----]
D]---------------2-----2---2-2-2-----2---2--]

e]------------------------------------------]
B]------------------------------------------]
G]-13----\11--------------------------------]
D]--x-X8-\-x-X8----------------------3-0~---]
A]-12----\9--------4~----4-------4~--3-0~---]
D]---------------2-----2---2-2-2-----3-0~---]

e]------------------------------------------]
B]------------------------------------------]
G]-13----\11--------------------------------]
D]--x-X8-\-x-X8-----------------------------]
A]-12----\9--------4~----4-------4~----4----]
D]---------------2-----2---2-2-2-----2---2--]

e]------------------------------------------]
B]------------------------------------------]
G]-13----\11--------------------------------]
D]--x-X8-\-x-X8----------------------3-0~---]
A]-12----\9--------4~----4-------4~--3-0~---]
D]---------------2-----2---2-2-2-----3-0~---]

e|------------------------------------------]
B|------------------------------------------]
G|------------------------------------------]
D|----4~--4------4~---4--6------------------]
A|-----------------------6------------------]
D|---6---6--6-6-6---6--6-6------------------]

************************************

| /   slide up
| \   slide down
| h   hammer-on
| p   pull-off
| ~   vibrato
| +   harmonic
| x   Mute note
| b   Bend
| pb  Pre-bend
| br  Bend release
| pbr Pre-bend release
| brb Bend release bend

************************************
Tap to rate this tab
 
# A B C D E F G H I J K L M N O P Q R S T U V W X Y Z