Song name
# A B C D E F G H I J K L M N O P Q R S T U V W X Y Z

Taking Back Sunday - Miami tab

----------------------------------------------------------------------------
			     Miami - Taking Back Sunday
----------------------------------------------------------------------------



 

Gtr I (E A D G B E) - 'Untitled'
Gtr II (E A D G B E) - 'Untitled'
Gtr III (E A D G B E) - 'Untitled'
Gtr IV (E A D G B E) - 'Untitled'





 Intro
  Fast Rock Q=157
  N.C.
 4/4
  Gtrs I, II
  E E E E E E E E   E E E E E E E E   E E E E E E E E   E E E E E E Q
|-x-x-x-x-x-x-x-x-|-x-x-x-x-x-x-x-x-|-x-x-x-x-x-x-x-x-|-x-x-x-x-x-x-0---||
|-x-x-x-x-x-x-x-x-|-x-x-x-x-x-x-x-x-|-x-x-x-x-x-x-x-x-|-x-x-x-x-x-x-0---||
|-x-x-x-x-x-x-x-x-|-x-x-x-x-x-x-x-x-|-x-x-x-x-x-x-x-x-|-x-x-x-x-x-x-0---||
|-x-x-x-x-x-x-x-x-|-x-x-x-x-x-x-x-x-|-x-x-x-x-x-x-x-x-|-x-x-x-x-x-x-0---||
|-----------------|-----------------|-----------------|-----------------||
|-----------------|-----------------|-----------------|-----------------||


 Verse
  A5                        G5        C/E               F5            C5/G
  Gtr I
  PM------------------------------------------------------------------|
  E E E E E E E E   E E E E E E E E   E E E E E E E E   E E E E E E E E
|-----------------|-----------------|-----------------|-----------------|
|-----------------|-----------------|-----------------|-----------------|
|-9-9-9-9-9-9-9-9-|-9-9-9-9-7-7-7-7-|-5-5-5-5-5-5-5-5-|-5-5-5-5-5-5-5-5-|
|-7-7-7-7-7-7-7-7-|-7-7-7-7-5-5-5-5-|-2-2-2-2-2-2-2-2-|-3-3-3-3-3-3-3-5-|
|-----------------|-----------------|-----------------|-----------------|
|-----------------|-----------------|-----------------|-----------------|


  F5                                  A5                D5/A
  PM------------------------------------------------------------------|
  E E E E E E E E   E E E E E E E E   E E E E E E E E   E E E E E E E E
|-----------------|-----------------|-----------------|-----------------|
|-----------------|-----------------|-----------------|-----------------|
|-5-5-5-5-5-5-5-5-|-5-5-5-5-5-5-5-5-|-9-9-9-9-9-9-9-9-|-7-7-7-7-7-7-7-7-|
|-3-3-3-3-3-3-3-3-|-3-3-3-3-3-3-3-3-|-7-7-7-7-7-7-7-7-|-7-7-7-7-7-7-7-7-|
|-----------------|-----------------|-----------------|-----------------|
|-----------------|-----------------|-----------------|-----------------|


  A5                        G5        C/E               F5            C5/G
  PM------------------------------------------------------------------|
  E E E E E E E E   E E E E E E E E   E E E E E E E E   E E E E E E E E
|-----------------|-----------------|-----------------|-----------------|
|-----------------|-----------------|-----------------|-----------------|
|-9-9-9-9-9-9-9-9-|-9-9-9-9-7-7-7-7-|-5-5-5-5-5-5-5-5-|-5-5-5-5-5-5-5-5-|
|-7-7-7-7-7-7-7-7-|-7-7-7-7-5-5-5-5-|-2-2-2-2-2-2-2-2-|-3-3-3-3-3-3-3-5-|
|-----------------|-----------------|-----------------|-----------------|
|-----------------|-----------------|-----------------|-----------------|


  F5                                  A5                D5/A
  PM--------------------------------------------------------|
  E E E E E E E E   E E E E E E E E   E E E E E E E E   E E E E E E E E
|-----------------|-----------------|-----------------|-----------------||
|-----------------|-----------------|-----------------|-----------------||
|-5-5-5-5-5-5-5-5-|-5-5-5-5-5-5-5-5-|-9-9-9-9-9-9-9-9-|-7-7-7-7-7-7-7-7-||
|-3-3-3-3-3-3-3-3-|-3-3-3-3-3-3-3-3-|-7-7-7-7-7-7-7-7-|-7-7-7-7-7-7-7-7-||
|-----------------|-----------------|-----------------|-----------------||
|-----------------|-----------------|-----------------|-----------------||


 Pre-Chorus
  $
  A5                        G5        C/E               F5            C5/G
  Gtr I
  PM------------------------------------------------------------------|
  E E E E E E E E   E E E E E E E E   E E E E E E E E   E E E E E E E E
|-----------------|-----------------|-----------------|-----------------|
|-----------------|-----------------|-----------------|-----------------|
|-9-9-9-9-9-9-9-9-|-9-9-9-9-7-7-7-7-|-5-5-5-5-5-5-5-5-|-5-5-5-5-5-5-5-5-|
|-7-7-7-7-7-7-7-7-|-7-7-7-7-5-5-5-5-|-2-2-2-2-2-2-2-2-|-3-3-3-3-3-3-3-5-|
|-----------------|-----------------|-----------------|-----------------|
|-----------------|-----------------|-----------------|-----------------|
|
| Gtr II
| q   q   q   q     q   q   q   q     q   q   q   q     q   q   q   q
|-5---5---5---5---|-5---5---3---3---|-----------------|-----------------|
|-5---5---5---5---|-5---5---3---3---|-5---5---5---5---|-6---6---6---6---|
|-5---5---5---5---|-5---5---4---4---|-5---5---5---5---|-5---5---5---5---|
|-----------------|-----------------|-----------------|-----------------|
|-----------------|-----------------|-----------------|-----------------|
|-----------------|-----------------|-----------------|-----------------|


  F5                                  A5                D5/A    C/E   F5
  PM------------------------------------------------|
  E E E E E E E E   E E E E E E E E   E E E E E E E E   E E E E E E E  E
|-----------------|-----------------|-----------------|------------------||
|-----------------|-----------------|-----------------|------------------||
|-5-5-5-5-5-5-5-5-|-5-5-5-5-5-5-5-5-|-9-9-9-9-9-9-9-9-|-7-7-7------------||
|-3-3-3-3-3-3-3-3-|-3-3-3-3-3-3-3-3-|-7-7-7-7-7-7-7-7-|-7-7-7----------3-||
|-----------------|-----------------|-----------------|---------3-3-3--3-||
|-----------------|-----------------|-----------------|---------0-0-0--1-||
|
| q   q   q   q     q   q   q   q     q   q   q   q     E E E E E E E  E
|-----------------|-----------------|-5---5---5---5---|-3-3-3------------||
|-5---5---5---5---|-6---6---6---6---|-5---5---5---5---|-3-3-3---8-8-8-10-||
|-5---5---5---5---|-5---5---5---5---|-5---5---5---5---|-4-4-4------------||
|-----------------|-----------------|-----------------|---------5-5-5--7-||
|-----------------|-----------------|-----------------|------------------||
|-----------------|-----------------|-----------------|------------------||


 Chorus
  F5                                               A5
  Gtr I
   +E   E  E  E  E  E  E  E    E  E  E  E  E  E  E  E
|---------------------------|-------------------------|
|---------------------------|-------------------------|
|---------------------------|-------------------------|
|--(3)--3--3--3--3--3--3--3-|--3--3--3--3--5--5--5--7-|
|--(3)--3--3--3--3--3--3--3-|--3--3--3--3--5--5--5--7-|
|--(1)--1--1--1--1--1--1--1-|--1--1--1--1--3--3--3--5-|
|
| Gtr II
|  +E   E  E  E  E  E  E  E    E  E  E  E  E  E  E  E
|---------------------------|-------------------------|
|-(10)-10-10-10-10-10-10-10-|-10-10-10-10-12-12-12-13-|
|---------------------------|-------------------------|
|--(7)--7--7--7--7--7--7--7-|--7--7--7--7--9--9--9-10-|
|---------------------------|-------------------------|
|---------------------------|-------------------------|
|
| Gtr III
|   W                          W
|---------------------------|-------------------------|
|---------------------------|-------------------------|
|---------------------------|-------------------------|
|---------------------------|-------------------------|
|---------------------------|-------------------------|
|---------------------------|-------------------------|


                                            G/B       C5
   +E   E  E  E  E  E  E  E      E  E  E  E  E   E  E  E
|-----------------------------|---------------------------|
|-----------------------------|---------------------------|
|-----------------------------|--------------4---4--4--5--|
|--(7)--7--7--7--7--7--7--7---|--7--7--7--7--5---5--5--5--|
|--(7)--7--7--7--7--7--7--7---|--7--7--7--7--2---2--2--3--|
|--(5)--5--5--5--5--5--5--5---|--5--5--5--5---------------|
|
|  +E   E  E  E  E  E  E  E      E  E  E  E  E   E  E  E
|-----------------------------|---------------------------|
|-(13)-13-13-13-13-13-13-13---|-13-13-13-13-15--15-15-17--|
|-----------------------------|---------------------------|
|-(10)-10-10-10-10-10-10-10---|-10-10-10-10-12--12-12-14--|
|-----------------------------|---------------------------|
|-----------------------------|---------------------------|
|
|   H.                 E  S S    E  E  E  E +Q.        E
|-----------------------------|---------------------------|
|-----------------------------|---------------------------|
|-------------------------x-x-|--5s=7--5s=7-(7)--------9--|
|-------------------------x-x-|---------------------------|
|-------------------------x-x-|--3s=5--3s=5-(5)--------7--|
|-----------------------------|---------------------------|


  C5                                      G5       F5
   +E   E  E  E  E  E  E  E    E  E  E  E  E  E  E  E
|---------------------------|-------------------------|
|---------------------------|-------------------------|
|--(5)--5--5--5--5--5--5--5-|--5--5--5--5-------------|
|--(5)--5--5--5--5--5--5--5-|--5--5--5--5--5--5--5--3-|
|--(3)--3--3--3--3--3--3--3-|--3--3--3--3--5--5--5--3-|
|---------------------------|--------------3--3--3--1-|
|
|  +E   E  E  E  E  E  E  E    E  E  E  E  E  E  E  E
|---------------------------|-------------------------|
|-(17)-17-17-17-17-17-17-17-|-17-17-17-17-12-12-12-10-|
|---------------------------|-------------------------|
|-(14)-14-14-14-14-14-14-14-|-14-14-14-14--9--9--9--7-|
|---------------------------|-------------------------|
|---------------------------|-------------------------|
|
|   >
|  +W                          W
|---------------------------|-------------------------|
|---------------------------|-------------------------|
|--(9)----------------------|-------------------------|
|---------------------------|-------------------------|
|--(7)----------------------|-------------------------|
|---------------------------|-------------------------|


                                       C/E   F5
   +E   E  E  E  E  E  E  E    E  E Q  E E E  E
|---------------------------|-------------------|
|---------------------------|-------------------|
|---------------------------|-------------------|
|--(3)--3--3--3--3--3--3--3-|--3--3-----------3-|
|--(3)--3--3--3--3--3--3--3-|--3--3----3-3-3--3-|
|--(1)--1--1--1--1--1--1--1-|--1--1----0-0-0--1-|
|
|  +E   E  E  E  E  E  E  E    E  E Q  E E E  E
|---------------------------|-------------------|
|-(10)-10-10-10-10-10-10-10-|-10-10----8-8-8-10-|
|---------------------------|-------------------|
|--(7)--7--7--7--7--7--7--7-|--7--7----5-5-5--7-|
|---------------------------|-------------------|
|---------------------------|-------------------|
|
|   W                          W
|---------------------------|-------------------|
|---------------------------|-------------------|
|---------------------------|-------------------|
|---------------------------|-------------------|
|---------------------------|-------------------|
|---------------------------|-------------------|


  F5                                      G5       A5
   +E   E  E  E  E  E  E  E    E  E  E  E  E  E  E  E
|---------------------------|-------------------------|
|---------------------------|-------------------------|
|---------------------------|-------------------------|
|--(3)--3--3--3--3--3--3--3-|--3--3--3--3--5--5--5--7-|
|--(3)--3--3--3--3--3--3--3-|--3--3--3--3--5--5--5--7-|
|--(1)--1--1--1--1--1--1--1-|--1--1--1--1--3--3--3--5-|
|
|  +E   E  E  E  E  E  E  E    E  E  E  E  E  E  E  E
|---------------------------|-------------------------|
|-(10)-10-10-10-10-10-10-10-|-10-10-10-10-12-12-12-13-|
|---------------------------|-------------------------|
|--(7)--7--7--7--7--7--7--7-|--7--7--7--7--9--9--9-10-|
|---------------------------|-------------------------|
|---------------------------|-------------------------|
|
|   W                          W
|---------------------------|-------------------------|
|---------------------------|-------------------------|
|---------------------------|-------------------------|
|---------------------------|-------------------------|
|---------------------------|-------------------------|
|---------------------------|-------------------------|


                                            G/B       C5
   +E   E  E  E  E  E  E  E      E  E  E  E  E   E  E  E
|-----------------------------|---------------------------|
|-----------------------------|---------------------------|
|-----------------------------|--------------4---4--4--5--|
|--(7)--7--7--7--7--7--7--7---|--7--7--7--7--5---5--5--5--|
|--(7)--7--7--7--7--7--7--7---|--7--7--7--7--2---2--2--3--|
|--(5)--5--5--5--5--5--5--5---|--5--5--5--5---------------|
|
|  +E   E  E  E  E  E  E  E      E  E  E  E  E   E  E  E
|-----------------------------|---------------------------|
|-(13)-13-13-13-13-13-13-13---|-13-13-13-13-15--15-15-17--|
|-----------------------------|---------------------------|
|-(10)-10-10-10-10-10-10-10---|-10-10-10-10-12--12-12-14--|
|-----------------------------|---------------------------|
|-----------------------------|---------------------------|
|
|   H.                 E  S S    E  E  E  E +Q.        E
|-----------------------------|---------------------------|
|-----------------------------|---------------------------|
|-------------------------x-x-|--5s=7--5s=7-(7)--------9--|
|-------------------------x-x-|---------------------------|
|-------------------------x-x-|--3s=5--3s=5-(5)--------7--|
|-----------------------------|---------------------------|


  C5                                      G5       F5
   +E   E  E  E  E  E  E  E    E  E  E  E  E  E  E  E
|---------------------------|-------------------------|
|---------------------------|-------------------------|
|--(5)--5--5--5--5--5--5--5-|--5--5--5--5-------------|
|--(5)--5--5--5--5--5--5--5-|--5--5--5--5--5--5--5--3-|
|--(3)--3--3--3--3--3--3--3-|--3--3--3--3--5--5--5--3-|
|---------------------------|--------------3--3--3--1-|
|
|  +E   E  E  E  E  E  E  E    E  E  E  E  E  E  E  E
|---------------------------|-------------------------|
|-(17)-17-17-17-17-17-17-17-|-17-17-17-17-12-12-12-10-|
|---------------------------|-------------------------|
|-(14)-14-14-14-14-14-14-14-|-14-14-14-14--9--9--9--7-|
|---------------------------|-------------------------|
|---------------------------|-------------------------|
|
|   >
|  +W                          W
|---------------------------|-------------------------|
|---------------------------|-------------------------|
|--(9)----------------------|-------------------------|
|---------------------------|-------------------------|
|--(7)----------------------|-------------------------|
|---------------------------|-------------------------|


                  To Coda
                                                N.C.
   +E   E  E  E  E  E  E  E    E  E  E  E  E  E Q
|---------------------------|-------------------0--||
|---------------------------|-------------------0--||
|---------------------------|-------------------0--||
|--(3)--3--3--3--3--3--3--3-|--3--3--3--3--3--3-0--||
|--(3)--3--3--3--3--3--3--3-|--3--3--3--3--3--3----||
|--(1)--1--1--1--1--1--1--1-|--1--1--1--1--1--1----||
|
|  +E   E  E  E  E  E  E  E    E  E  E  E  E  E Q
|---------------------------|-------------------0--||
|-(10)-10-10-10-10-10-10-10-|-10-10-10-10-10-10-0--||
|---------------------------|-------------------0--||
|--(7)--7--7--7--7--7--7--7-|--7--7--7--7--7--7-0--||
|---------------------------|----------------------||
|---------------------------|----------------------||
|
|   W                          W
|---------------------------|----------------------||
|---------------------------|----------------------||
|---------------------------|----------------------||
|---------------------------|----------------------||
|---------------------------|----------------------||
|---------------------------|----------------------||


 Verse
  A5                        G5        C/E               F5            C5/G
  Gtr I
  PM------------------------------------------------------------------|
  E E E E E E E E   E E E E E E E E   E E E E E E E E   E E E E E E E E
|-----------------|-----------------|-----------------|-----------------|
|-----------------|-----------------|-----------------|-----------------|
|-9-9-9-9-9-9-9-9-|-9-9-9-9-7-7-7-7-|-5-5-5-5-5-5-5-5-|-5-5-5-5-5-5-5-5-|
|-7-7-7-7-7-7-7-7-|-7-7-7-7-5-5-5-5-|-2-2-2-2-2-2-2-2-|-3-3-3-3-3-3-3-5-|
|-----------------|-----------------|-----------------|-----------------|
|-----------------|-----------------|-----------------|-----------------|
|
| Gtr II
| q   q   H         q   q   q   q     q   q   H         q   q   H
|-5---5-----------|-5---5---3---3---|-----------------|-----------------|
|-5---5-----------|-5---5---3---3---|-5---5-----------|-6---6-----------|
|-5---5-----------|-5---5---4---4---|-5---5-----------|-5---5-----------|
|-----------------|-----------------|-----------------|-----------------|
|-----------------|-----------------|-----------------|-----------------|
|-----------------|-----------------|-----------------|-----------------|


                                                          D.S. al Coda
  F5                                  A5                D5/A
  PM--------------------------------------------------------|
  E E E E E E E E   E E E E E E E E   E E E E E E E E   E E E E E E E E
|-----------------|-----------------|-----------------|-----------------||
|-----------------|-----------------|-----------------|-----------------||
|-5-5-5-5-5-5-5-5-|-5-5-5-5-5-5-5-5-|-9-9-9-9-9-9-9-9-|-7-7-7-7-7-7-7-7-||
|-3-3-3-3-3-3-3-3-|-3-3-3-3-3-3-3-3-|-7-7-7-7-7-7-7-7-|-7-7-7-7-7-7-7-7-||
|-----------------|-----------------|-----------------|-----------------||
|-----------------|-----------------|-----------------|-----------------||
|
| q   q   H         q   q   q   q     q   q   H         q   q   Q   Q
|-----------------|-----------------|-5---5-----------|-3---3-------0---||
|-5---5-----------|-6---6---6---6---|-5---5-----------|-3---3-------0---||
|-5---5-----------|-5---5---5---5---|-5---5-----------|-4---4-------0---||
|-----------------|-----------------|-----------------|-------------0---||
|-----------------|-----------------|-----------------|-----------------||
|-----------------|-----------------|-----------------|-----------------||


                        Guitar Solo
  &
  F5          G5         F5
  Gtr I
   E  E  E  E E E E E    E   E   E   E   E   E   E   E
|---------------------||-------------------------------|
|---------------------||-------------------------------|
|---------------------||-------------------------------|
|--3--3--3--3-5-5-5-5-||-3---3---3---3---3---3---3---3-|
|--3--3--3--3-5-5-5-5-||-3---3---3---3---3---3---3---3-|
|--1--1--1--1-3-3-3-3-||-1---1---1---1---1---1---1---1-|
|
| Gtr II
|  E  E  E  E E E E E    E   E   E   E   E   E   E   E
|---------------------||-------------------------------|
|-10-10-10-10-8-8-8-8-||-------------------------------|
|---------------------||-------------------------------|
|--7--7--7--7-5-5-5-5-||-3---3---3---3---3---3---3---3-|
|---------------------||-3---3---3---3---3---3---3---3-|
|---------------------||-1---1---1---1---1---1---1---1-|
|
| Gtr III
|  W                     S S S S S S S S S S S S S S E
|---------------------||-------------------------------|
|---------------------||-------------------------------|
|---------------------||-9p7p5-------9p7p5-------9p7p5-|
|---------------------||-------9p7p5-------9p7p5-------|
|---------------------||-------------------------------|
|---------------------||-------------------------------|


                  G5          A5
  E   E   E   E   E   E   E   E
|--------------------------------|
|--------------------------------|
|--------------------------------|
|-3---3---3---3---5---5---5---7--|
|-3---3---3---3---5---5---5---7--|
|-1---1---1---1---3---3---3---5--|
|
| E   E   E   E   E   E   E   E
|--------------------------------|
|--------------------------------|
|--------------------------------|
|-3---3---3---3---5---5---5---7--|
|-3---3---3---3---5---5---5---7--|
|-1---1---1---1---3---3---3---5--|
|
| S S S S S S S S S S S S S S E
|--------------------------------|
|--------------------------------|
|-9p7p5-------9p7p5-------9p7p5--|
|-------9p7p5-------9p7p5--------|
|--------------------------------|
|--------------------------------|


  A5                                              G/B       C5
  Gtrs I, II
  +E  E     E  E  E  E     E E    E     E   E   E  E E   E   E
|------------------------------|-----------------------------------|
|------------------------------|-----------------------------------|
|------------------------------|-------------------4-4---4---5-----|
|-(7)-7-----7--7--7--7-----7-7-|--7-----7---7---7--5-5---5---5-----|
|-(7)-7-----7--7--7--7-----7-7-|--7-----7---7---7--2-2---2---3-----|
|-(5)-5-----5--5--5--5-----5-5-|--5-----5---5---5------------------|
|
| Gtr III
|  E.    E.    E  E.    E.   E    Q        +E   E  Q    +E   E
|------------------------------|-----------------------------------|
|------------------------------|---------------13------------------|
|-/9----10----12-12----10----9-|-12b14====(12)----12r==(12)-12b14==|
|------------------------------|-----------------------------------|
|------------------------------|-----------------------------------|
|------------------------------|-----------------------------------|


  C5                                            G5        F5
   +E   E  E   E   E     E E  E     E E   E E   E E E     E
|---------------------------------|---------------------------|
|---------------------------------|---------------------------|
|--(5)--5--5---5---5-----5-5--5---|-5-5---5-5-----------------|
|--(5)--5--5---5---5-----5-5--5---|-5-5---5-5---5-5-5-----3---|
|--(3)--3--3---3---3-----3-3--3---|-3-3---3-3---5-5-5-----3---|
|---------------------------------|-------------3-3-3-----1---|
|
|                                                   |-3-|
|  +E   E  E  +E   S  S  E E  S S   E S S E S S Q   S S S S S
|---------------------------------|---------------------------|
|------13-------------------------|---------------------------|
|-(12)----12r(12)-10h12p10-9h10p9-|-7h9p7-5h7p5-4---4h5p4-5p4-|
|---------------------------------|---------------------------|
|---------------------------------|---------------------------|
|---------------------------------|---------------------------|


  +E   E   E   E   E   E   E   E     E    E E E E E E E
|----------------------------------|--------------------||
|----------------------------------|--------------------||
|----------------------------------|--------------------||
|-(3)--3---3---3---3---3---3---3---|-3----3-3-3-3-3-3-3-||
|-(3)--3---3---3---3---3---3---3---|-3----3-3-3-3-3-3-3-||
|-(1)--1---1---1---1---1---1---1---|-1----1-1-1-1-1-1-1-||
|
|  S S S S S S S S S S S S S S S S   W
|----------------------------------|--------------------||
|----------------------------------|--------------------||
|--5p4---4h5p4---4h5p4---4h5p4---4-|--------------------||
|------7-------7-------7-------7---|-7b9================||
|----------------------------------|--------------------||
|----------------------------------|--------------------||


 Guitar Break
  N.C.
  Gtr III
                                             >
  +W           +H     +H       +W           +W
|------------|---------------|------------|--------|
|------------|---------------|------------|--------|
|------------|---------------|------------|--------|
|-(7)--------|-(7)----(7)r===|=(7)--------|-(7)----|
|------------|---------------|------------|--------|
|------------|---------------|------------|--------|


  N.C.
  W          W          W          W
|----------|----------|----------|------|
|----------|----------|----------|------|
|----------|----------|----------|------|
|----------|----------|----------|------|
|----------|----------|----------|------|
|----------|----------|----------|------|


  F/A                Am7     Am
  Gtr IV
   W          +H      H       W          +W
|-^1--------|-(1)----^3----|-^0--------|-(0)----|
|-^1--------|-(1)----^1----|-^1--------|-(1)----|
|-^2--------|-(2)----^2----|-^2--------|-(2)----|
|-----------|--------------|-----------|--------|
|-----------|--------------|-----------|--------|
|-----------|--------------|-----------|--------|


  C/G                        F/A
   W          +H      H       W          +W
|-^0--------|-(0)----^0----|-^1--------|-(1)----||
|-^1--------|-(1)----^1----|-^1--------|-(1)----||
|-^0--------|-(0)----^0----|-^2--------|-(2)----||
|-----------|--------------|-----------|--------||
|-----------|--------------|-----------|--------||
|-----------|--------------|-----------|--------||


 Bridge
  F/A                Am7     Am
  Gtr III
   W          +H      H       W          +W
|-^1--------|-(1)----^3----|-^0--------|-(0)----|
|-^1--------|-(1)----^1----|-^1--------|-(1)----|
|-^2--------|-(2)----^2----|-^2--------|-(2)----|
|-----------|--------------|-----------|--------|
|-----------|--------------|-----------|--------|
|-----------|--------------|-----------|--------|
|
| Gtr IV
|  W          +H      H       W          +W
|-^1--------|-(1)----^3----|-^0--------|-(0)----|
|-^1--------|-(1)----^1----|-^1--------|-(1)----|
|-^2--------|-(2)----^2----|-^2--------|-(2)----|
|-----------|--------------|-----------|--------|
|-----------|--------------|-----------|--------|
|-----------|--------------|-----------|--------|


  C/G                        F/A                                 C/E   F5
                                                                 Gtr I
   W          +H      H       E  E  E  E  E  E  E  E    E   E  E E E E E  E
|-^0-------|-(0)----^0--|----15-------15-------15-|--------15------------||
|-^1-------|-(1)----^1--|-------13-------13-------|-13-------------------||
|-^0-------|-(0)----^0--|-14-------14-------14----|-----14---------------||
|----------|------------|-------------------------|--------------------3-||
|----------|------------|-------------------------|-------------3-3-3--3-||
|----------|------------|-------------------------|-------------0-0-0--1-||
|
|                                                                Gtr II
|  W          +H      H       W                        +H        E E E  E
|-^0--------|-(0)----^0----|-^1----------------------|-(1)----------------||
|-^1--------|-(1)----^1----|-^1----------------------|-(1)-------8-8-8-10-||
|-^0--------|-(0)----^0----|-^2----------------------|-(2)----------------||
|-----------|--------------|-------------------------|-----------5-5-5--7-||
|-----------|--------------|-------------------------|--------------------||
|-----------|--------------|-------------------------|--------------------||


 Chorus
  F5                                      G5       A5
  Gtr I
   +E   E  E  E  E  E  E  E    E  E  E  E  E  E  E  E
|---------------------------|-------------------------|
|---------------------------|-------------------------|
|---------------------------|-------------------------|
|--(3)--3--3--3--3--3--3--3-|--3--3--3--3--5--5--5--7-|
|--(3)--3--3--3--3--3--3--3-|--3--3--3--3--5--5--5--7-|
|--(1)--1--1--1--1--1--1--1-|--1--1--1--1--3--3--3--5-|
|
| Gtr II
|  +E   E  E  E  E  E  E  E    E  E  E  E  E  E  E  E
|---------------------------|-------------------------|
|-(10)-10-10-10-10-10-10-10-|-10-10-10-10-12-12-12-13-|
|---------------------------|-------------------------|
|--(7)--7--7--7--7--7--7--7-|--7--7--7--7--9--9--9-10-|
|---------------------------|-------------------------|
|---------------------------|-------------------------|
|
| Gtr III
|   W                          W
|---------------------------|-------------------------|
|---------------------------|-------------------------|
|---------------------------|-------------------------|
|---------------------------|-------------------------|
|---------------------------|-------------------------|
|---------------------------|-------------------------|


                                            G/B       C5
   +E   E  E  E  E  E  E  E      E  E  E  E  E   E  E  E
|-----------------------------|---------------------------|
|-----------------------------|---------------------------|
|-----------------------------|--------------4---4--4--5--|
|--(7)--7--7--7--7--7--7--7---|--7--7--7--7--5---5--5--5--|
|--(7)--7--7--7--7--7--7--7---|--7--7--7--7--2---2--2--3--|
|--(5)--5--5--5--5--5--5--5---|--5--5--5--5---------------|
|
|  +E   E  E  E  E  E  E  E      E  E  E  E  E   E  E  E
|-----------------------------|---------------------------|
|-(13)-13-13-13-13-13-13-13---|-13-13-13-13-15--15-15-17--|
|-----------------------------|---------------------------|
|-(10)-10-10-10-10-10-10-10---|-10-10-10-10-12--12-12-14--|
|-----------------------------|---------------------------|
|-----------------------------|---------------------------|
|
|   H.                 E  S S    E  E  E  E +Q.        E
|-----------------------------|---------------------------|
|-----------------------------|---------------------------|
|-------------------------x-x-|--5s=7--5s=7-(7)--------9--|
|-------------------------x-x-|---------------------------|
|-------------------------x-x-|--3s=5--3s=5-(5)--------7--|
|-----------------------------|---------------------------|


  C5                                      G5       F5
   +E   E  E  E  E  E  E  E    E  E  E  E  E  E  E  E
|---------------------------|-------------------------|
|---------------------------|-------------------------|
|--(5)--5--5--5--5--5--5--5-|--5--5--5--5-------------|
|--(5)--5--5--5--5--5--5--5-|--5--5--5--5--5--5--5--3-|
|--(3)--3--3--3--3--3--3--3-|--3--3--3--3--5--5--5--3-|
|---------------------------|--------------3--3--3--1-|
|
|  +E   E  E  E  E  E  E  E    E  E  E  E  E  E  E  E
|---------------------------|-------------------------|
|-(17)-17-17-17-17-17-17-17-|-17-17-17-17-12-12-12-10-|
|---------------------------|-------------------------|
|-(14)-14-14-14-14-14-14-14-|-14-14-14-14--9--9--9--7-|
|---------------------------|-------------------------|
|---------------------------|-------------------------|
|
|   >
|  +W                          W
|---------------------------|-------------------------|
|---------------------------|-------------------------|
|--(9)----------------------|-------------------------|
|---------------------------|-------------------------|
|--(7)----------------------|-------------------------|
|---------------------------|-------------------------|


                                       C/E   F5
   +E   E  E  E  E  E  E  E    E  E Q  E E E  E
|---------------------------|-------------------|
|---------------------------|-------------------|
|---------------------------|-------------------|
|--(3)--3--3--3--3--3--3--3-|--3--3-----------3-|
|--(3)--3--3--3--3--3--3--3-|--3--3----3-3-3--3-|
|--(1)--1--1--1--1--1--1--1-|--1--1----0-0-0--1-|
|
|  +E   E  E  E  E  E  E  E    E  E Q  E E E  E
|---------------------------|-------------------|
|-(10)-10-10-10-10-10-10-10-|-10-10----8-8-8-10-|
|---------------------------|-------------------|
|--(7)--7--7--7--7--7--7--7-|--7--7----5-5-5--7-|
|---------------------------|-------------------|
|---------------------------|-------------------|
|
|   W                          W
|---------------------------|-------------------|
|---------------------------|-------------------|
|---------------------------|-------------------|
|---------------------------|-------------------|
|---------------------------|-------------------|
|---------------------------|-------------------|


  F5                                      G5       A5
   +E   E  E  E  E  E  E  E    E  E  E  E  E  E  E  E
|---------------------------|-------------------------|
|---------------------------|-------------------------|
|---------------------------|-------------------------|
|--(3)--3--3--3--3--3--3--3-|--3--3--3--3--5--5--5--7-|
|--(3)--3--3--3--3--3--3--3-|--3--3--3--3--5--5--5--7-|
|--(1)--1--1--1--1--1--1--1-|--1--1--1--1--3--3--3--5-|
|
|  +E   E  E  E  E  E  E  E    E  E  E  E  E  E  E  E
|---------------------------|-------------------------|
|-(10)-10-10-10-10-10-10-10-|-10-10-10-10-12-12-12-13-|
|---------------------------|-------------------------|
|--(7)--7--7--7--7--7--7--7-|--7--7--7--7--9--9--9-10-|
|---------------------------|-------------------------|
|---------------------------|-------------------------|
|
|   W                          W
|---------------------------|-------------------------|
|---------------------------|-------------------------|
|---------------------------|-------------------------|
|---------------------------|-------------------------|
|---------------------------|-------------------------|
|---------------------------|-------------------------|


                                            G/B       C5
   +E   E  E  E  E  E  E  E      E  E  E  E  E   E  E  E
|-----------------------------|---------------------------|
|-----------------------------|---------------------------|
|-----------------------------|--------------4---4--4--5--|
|--(7)--7--7--7--7--7--7--7---|--7--7--7--7--5---5--5--5--|
|--(7)--7--7--7--7--7--7--7---|--7--7--7--7--2---2--2--3--|
|--(5)--5--5--5--5--5--5--5---|--5--5--5--5---------------|
|
|  +E   E  E  E  E  E  E  E      E  E  E  E  E   E  E  E
|-----------------------------|---------------------------|
|-(13)-13-13-13-13-13-13-13---|-13-13-13-13-15--15-15-17--|
|-----------------------------|---------------------------|
|-(10)-10-10-10-10-10-10-10---|-10-10-10-10-12--12-12-14--|
|-----------------------------|---------------------------|
|-----------------------------|---------------------------|
|
|   H.                 E  S S    E  E  E  E +Q.        E
|-----------------------------|---------------------------|
|-----------------------------|---------------------------|
|-------------------------x-x-|--5s=7--5s=7-(7)--------9--|
|-------------------------x-x-|---------------------------|
|-------------------------x-x-|--3s=5--3s=5-(5)--------7--|
|-----------------------------|---------------------------|


  C5                                      G5       F5
   +E   E  E  E  E  E  E  E    E  E  E  E  E  E  E  E
|---------------------------|-------------------------|
|---------------------------|-------------------------|
|--(5)--5--5--5--5--5--5--5-|--5--5--5--5-------------|
|--(5)--5--5--5--5--5--5--5-|--5--5--5--5--5--5--5--3-|
|--(3)--3--3--3--3--3--3--3-|--3--3--3--3--5--5--5--3-|
|---------------------------|--------------3--3--3--1-|
|
|  +E   E  E  E  E  E  E  E    E  E  E  E  E  E  E  E
|---------------------------|-------------------------|
|-(17)-17-17-17-17-17-17-17-|-17-17-17-17-12-12-12-10-|
|---------------------------|-------------------------|
|-(14)-14-14-14-14-14-14-14-|-14-14-14-14--9--9--9--7-|
|---------------------------|-------------------------|
|---------------------------|-------------------------|
|
|   >
|  +W                          W
|---------------------------|-------------------------|
|---------------------------|-------------------------|
|--(9)----------------------|-------------------------|
|---------------------------|-------------------------|
|--(7)----------------------|-------------------------|
|---------------------------|-------------------------|


                                          G5
   +E   E  E  E  E  E  E  E    E  E  E  E  E  E  E  E
|---------------------------|-------------------------||
|---------------------------|-------------------------||
|---------------------------|-------------------------||
|--(3)--3--3--3--3--3--3--3-|--3--3--3--3--5--5--5--5-||
|--(3)--3--3--3--3--3--3--3-|--3--3--3--3--5--5--5--5-||
|--(1)--1--1--1--1--1--1--1-|--1--1--1--1--3--3--3--3-||
|
|  +E   E  E  E  E  E  E  E    E  E  E  E  E  E  E  E
|---------------------------|-------------------------||
|-(10)-10-10-10-10-10-10-10-|-10-10-10-10-12-12-12-12-||
|---------------------------|-------------------------||
|--(7)--7--7--7--7--7--7--7-|--7--7--7--7--9--9--9--9-||
|---------------------------|-------------------------||
|---------------------------|-------------------------||
|
|   W                          W
|---------------------------|-------------------------||
|---------------------------|-------------------------||
|---------------------------|-------------------------||
|---------------------------|-------------------------||
|---------------------------|-------------------------||
|---------------------------|-------------------------||


 Outro
  F5                            G5    A5
  Gtrs I, II
  E E  E  E E E E E    E  E E E E E E E
|-------------------|-------------------|
|-------------------|-------------------|
|-------------------|-------------------|
|-3-3--3--3-3-3-3-3-|--3--3-3-3-5-5-5-7-|
|-3-3--3--3-3-3-3-3-|--3--3-3-3-5-5-5-7-|
|-1-1--1--1-1-1-1-1-|--1--1-1-1-3-3-3-5-|
|
| Gtr IV
| E E +E  E Q   E E   +E  E Q   E E Q
|-------------------|-------------------|
|-------------------|-------------------|
|---5-(5)---7-----5-|-(5)---9---9-7-5---|
|-5-------5-----5---|-----5-------------|
|-------------------|-------------------|
|-------------------|-------------------|


                                  G/B   C5
  +E  E  E  E E E E E    E  E E E E E E E
|---------------------|-------------------|
|---------------------|-------------------|
|---------------------|-----------4-4-4-5-|
|-(7)-7--7--7-7-7-7-7-|--7--7-7-7-5-5-5-5-|
|-(7)-7--7--7-7-7-7-7-|--7--7-7-7-2-2-2-3-|
|-(5)-5--5--5-5-5-5-5-|--5--5-5-5---------|
|
|  E  E +E  E Q   E E   +E  E Q   E E Q
|---------------------|-------------------|
|---------------------|-------------------|
|-----5-(5)---7-----5-|-(5)---9---9-7-5---|
|--5--------5-----5---|-----5-------------|
|---------------------|-------------------|
|---------------------|-------------------|


  C5                              G5    F5
  +E  E  E  E E E E E    E  E E E E E E E
|---------------------|-------------------|
|---------------------|-------------------|
|-(5)-5--5--5-5-5-5-5-|--5--5-5-5---------|
|-(5)-5--5--5-5-5-5-5-|--5--5-5-5-5-5-5-3-|
|-(3)-3--3--3-3-3-3-3-|--3--3-3-3-5-5-5-3-|
|---------------------|-----------3-3-3-1-|
|
|  E  E +E  E Q   E E   +E  E Q   E E Q
|---------------------|-------------------|
|---------------------|-------------------|
|-----5-(5)---7-----5-|-(5)---9---9-7-5---|
|--5--------5-----5---|-----5-------------|
|---------------------|-------------------|
|---------------------|-------------------|


                                 C/E   F5
  +E  E  E  E E E E E    E  E Q  E E E E
|---------------------|------------------|
|---------------------|------------------|
|---------------------|------------------|
|-(3)-3--3--3-3-3-3-3-|--3--3----------3-|
|-(3)-3--3--3-3-3-3-3-|--3--3----3-3-3-3-|
|-(1)-1--1--1-1-1-1-1-|--1--1----0-0-0-1-|
|
|  E  E +E  E Q   E E   +E  E Q  E E Q
|---------------------|------------------|
|---------------------|------------------|
|-----5-(5)---7-----5-|-(5)---9--9-7-5---|
|--5--------5-----5---|-----5------------|
|---------------------|------------------|
|---------------------|------------------|


  F5                                               G5           A5
  +E   E   E   E   E   E   E   E     E   E   E   E   E   E   E   E
|--------------------------------|---------------------------------|
|--------------------------------|---------------------------------|
|--------------------------------|---------------------------------|
|-(3)--3---3---3---3---3---3---3-|---3---3---3---3---5---5---5---7-|
|-(3)--3---3---3---3---3---3---3-|---3---3---3---3---5---5---5---7-|
|-(1)--1---1---1---1---1---1---1-|---1---1---1---1---3---3---3---5-|
|
|  E   E  +E   E  +E   E  +E   E    +E   E  +E   E  +E   E  +E   E
|--------------------------------|---------------------------------|
|-13----------13-(13)---------15-|-(15)---------15-(15)-13-(13)----|
|-----12-(12)---------12-(12)----|------12-(12)-----------------12-|
|--------------------------------|---------------------------------|
|--------------------------------|---------------------------------|
|--------------------------------|---------------------------------|


                                                   G/B      C5
   +E   E   E   E  E  E  E  E     E   E   E   E     E  E  E  E
|-----------------------------|---------------------------------|
|-----------------------------|---------------------------------|
|-----------------------------|---------------------4--4--4--5--|
|--(7)--7---7---7--7--7--7--7-|---7---7---7---7-----5--5--5--5--|
|--(7)--7---7---7--7--7--7--7-|---7---7---7---7-----2--2--2--3--|
|--(5)--5---5---5--5--5--5--5-|---5---5---5---5-----------------|
|
|  +E   E  +E   E  E  E  E  E    +E   E  +E   S  S  E  E  E  E
|-----------------------------|---------------------------------|
|-----------------13-13----15-|-(15)-13-(13)-15h17p15-13--------|
|-(12)-12-(12)-12-------12----|--------------------------12-12--|
|-----------------------------|---------------------------------|
|-----------------------------|---------------------------------|
|-----------------------------|---------------------------------|


  C5                                               G5       F5
   +E   E   E   E  E  E  E  E     E   E   E   E     E  E  E  E
|-----------------------------|--------------------------------|
|-----------------------------|--------------------------------|
|--(5)--5---5---5--5--5--5--5-|---5---5---5---5----------------|
|--(5)--5---5---5--5--5--5--5-|---5---5---5---5-----5--5--5--3-|
|--(3)--3---3---3--3--3--3--3-|---3---3---3---3-----5--5--5--3-|
|-----------------------------|---------------------3--3--3--1-|
|
|  +E   E  +E   E  E  E  E  E    +E   E  +E   S  S  E  E  E  E
|-----------------------------|--------------------------------|
|-----------------13-13----15-|-(15)-13-(13)-15h17p15-13-------|
|-(12)-12-(12)-12-------12----|--------------------------12-12-|
|-----------------------------|--------------------------------|
|-----------------------------|--------------------------------|
|-----------------------------|--------------------------------|


   +E   E   E   E  E  E  E  E     E   E   E   E     E  E  E  E
|-----------------------------|--------------------------------|
|-----------------------------|--------------------------------|
|-----------------------------|--------------------------------|
|--(3)--3---3---3--3--3--3--3-|---3---3---3---3-----3--3--3--3-|
|--(3)--3---3---3--3--3--3--3-|---3---3---3---3-----3--3--3--3-|
|--(1)--1---1---1--1--1--1--1-|---1---1---1---1-----1--1--1--1-|
|
|  +E   E  +E   E  E  E  E  E    +E   E  +E   S  S  E  E  E  E
|-----------------------------|--------------------------------|
|-----------------13-13----15-|-(15)-13-(13)-15h17p15-13-------|
|-(12)-12-(12)-12-------12----|--------------------------12-12-|
|-----------------------------|--------------------------------|
|-----------------------------|--------------------------------|
|-----------------------------|--------------------------------|


  N.C.
  Gtrs I, II
  E E E E E E E E   E E E E E E Q
|-x-x-x-x-x-x-x-x-|-x-x-x-x-x-x-0--*|
|-x-x-x-x-x-x-x-x-|-x-x-x-x-x-x-0--*|
|-x-x-x-x-x-x-x-x-|-x-x-x-x-x-x-0--*|
|-x-x-x-x-x-x-x-x-|-x-x-x-x-x-x-0--*|
|-----------------|----------------*|
|-----------------|----------------*|




----------------------------------------------------------------------------


Duration Legend
---------------
W - whole; H - half; Q - quarter; E - 8th; S - 16th; T - 32nd; X - 64th; a - acciaccatura
+ - note tied to previous; . - note dotted; .. - note double dotted
Uncapitalized letters represent notes that are staccato (1/2 duration)
Irregular groupings are notated above the duration line
Duration letters will always appear directly above the note/fret number it represents the
duration for.  Duration letters with no fret number below them represent rests.  Multi-
bar rests are notated in the form Wxn, where n is the number of bars to rest for.  Low
melody durations appear below the staff

Tablature Legend
----------------
 h   - hammer-on
 p   - pull-off
 b   - bend
 pb  - pre-bend
 r   - bend release (if no number after the r, then release immediately)
 /\  - slide into or out of (from/to "nowhere")
 s   - legato slide
 S   - shift slide
 - natural harmonic
[n]  - artificial harmonic
n(n) - tapped harmonic
 ~   - vibrato
 tr  - trill
 T   - tap
 TP  - trem. picking
 PM  - palm muting
\n/  - tremolo bar dip; n = amount to dip
 \n  - tremolo bar down
 n/  - tremolo bar up
/n\  - tremolo bar inverted dip
 =   - hold bend; also acts as connecting device for hammers/pulls
 <> - volume swell (louder/softer)
 x   - on rhythm slash represents muted slash
 o   - on rhythm slash represents single note slash

Misc Legend
-----------
 |  - bar
||  - double bar
||o - repeat start
o|| - repeat end
*|  - double bar (ending)
 :  - bar (freetime)
 $  - Segno
 &  - Coda
Tempo markers -  = BPM(8/16=s8/s16), where s8 = swing 8ths, s16 = swing 16ths



----------------------------------------------------------------------------
Tap to rate this tab
# A B C D E F G H I J K L M N O P Q R S T U V W X Y Z