Song name
# A B C D E F G H I J K L M N O P Q R S T U V W X Y Z

Taylor Swift - Mean tab

-------------------------------------------------------------------------------
			     Mean (Solo) - Taylor Swift
-------------------------------------------------------------------------------
This is the solo that takes place from 2:10 to 2:18 in the song

For the chords to the song there is a capo on 4 but this tab is not relative to the capo.



Tuning: Standard

e|---12---12-12---12-11-9------17--16--14--12-11-9-----------------|
B|-------------------------------------------------12-9-12-9-------|
G|-9----9-------9------------14--14--14----------------------9-----|
D|-----------------------------------------------------------------|
A|-----------------------------------------------------------------|
E|-----------------------------------------------------------------|

e|------------------------12-16-14-12------------------------------|
B|---9-9-9--9-9-9--9-9-9--------------16-12------------------------|
G|-9-9-9-9--9-9-9--9-9-9-------------------------------------------|
D|-----------------------------------------------------------------|
A|-----------------------------------------------------------------|
E|-----------------------------------------------------------------|
Tap to rate this tab
 
# A B C D E F G H I J K L M N O P Q R S T U V W X Y Z