Song name
# A B C D E F G H I J K L M N O P Q R S T U V W X Y Z

Taylor Swift - Safe And Sound tab

Safe and Sound - Capo 7


  Dm	           Am        F           C       C/B
|-------1p0----------------------------------------------|
|-------3-------------1-----------------------------1----|
|----2----------------2---0h2-2-2--0--------0-----0------|
|-0---------0------2------3-----3-----0h2-2--------------|
|---------------0---------------------3-------0h2--------|
|--------------------------------------------------------|

  Dm            Am        F           C
|-------1p0--------------------------------|
|-------3-------------1---------1-----1----|
|----2----------------2---2-------2p0-0----|
|-0----------0-----2------3--3-------------|
|---------------0---------------------3----|
|------------------------------------------|
Tap to rate this tab
# A B C D E F G H I J K L M N O P Q R S T U V W X Y Z