Song name
# A B C D E F G H I J K L M N O P Q R S T U V W X Y Z

Taylor Swift - Safe And Sound tab

Chords Used:

Dm  000231
Am  002210
F   133211
C   032010


Standard tuning. Capo on 7th fret.

Intro:
                
E||----------1p0-----------------------|----------------------------------|
B||----------3---------------1---------|--------------------------------1-|
G||------2-------------------2---------|--0h2-----2---0--------0------0---|
D||--0-----------0-------2-------------|--3-------3---3---0h2-2-----------| 
A||------------------0----------(0)----|--3--(3)----------3-------0h2-----| 
E||------------------------------------|----------------------------------|  


E||----------1p0-----------------------|----------------------------------|
B||----------3---------------1---------|----------1-------1---------------|
G||------2-------------------2---------|--2---------------0---------------|
D||--0-----------0-------2-------------|--3---------------2---------------| 
A||------------------0----------(0)----|--3--(3)-----(3)--3---------------| 
E||------------------------------------|----------------------------------| 
Tap to rate this tab
# A B C D E F G H I J K L M N O P Q R S T U V W X Y Z