Guitaretab - guitar tabs
Song name
# A B C D E F G H I J K L M N O P Q R S T U V W X Y Z

Taylor Swift - Safe And Sound tab

-----------------------------------------------------------------------------
	SAFE AND SOUND (feat. The Civil Wars) - Taylor Swift
-----------------------------------------------------------------------------
Tabbed by: Kevin Nguyen
Email: kvnpnguyen@gmail.com
Beautiful new song from Taylor, and I can't wait to hear it in the Hunger Games movie.  
Here's a full tab.

Capo 7

INTRO:
E |--------------1h-0----------------------------------|
B |--------------3-----------------------1-------------|
G |--------2-----------2-------------------------------|
D |--0-----------------------------2-----2-------------|
A |--------------------------0-------------------------|
E |----------------------------------------------------|


----------------------------------------------------|
-----------------------------------------------1----|
--0h-2--2-----2-----0--------0--0h-2----------------|
--3-----3-----3-----------2-----------------2-------|
--------------------------3-----------0h-3----------|
----------------------------------------------------|


--------------1h-0----------------------------------|
--------------3-----------------------1-------------|
--2-----2-----------2-------------------------------|
--0-----------------------------2-----2-------------|
--------------------------0-------------------------|
----------------------------------------------------|


----------------------------------------------------|
--------------1-----------1-------------------------|
--2-----2-----------2h-0----------------------------|
--3-----3-------------------------------------------|
--------------------------3-------------------------|
--1-------------------------------------------------|


VERSE:
--1-----------1h-0--------------------0-------------|
--3-----------3-----------------------1-------------|
-----------2-----------2--------2-----------2-------|
--0-----0-----------0-----2-------------------------|
--------------------------0-------------------------|
----------------------------------------------------|


----------------------------------------------------|
-----------------------------------------------1----|
--0h-2--2-----2-----0--------0--0h-2--------0-------|
--3-----3-----3-----3-----2-------------------------|
--------------------------3-----------0h-3----------|
--1-------------------------------------------------|


--------------1h-0----------------------------------|
--------------3-----------------------1-------------|
--0-----2-----------2-----------------2-------------|
--0-----------------------------2-----------2-------|
--------------------------0-------------------------|
----------------------------------------------------|


--------------------------------------0-------------|
--------------1-----------1-----------1-------------|
--2-----2-----------0h-2----------------------------|
--3-----3-----------------------2-------------------|
--------------------------3-----------3-------------|
----------------------------------------------------|


--1-----------1h-0--------------------0-------------|
--3-----------3-----------------------1-------------|
-----------2-----------2--------2-----------2-------|
--0-----0-----------0-----2-------------------------|
--------------------------0-------------------------|
----------------------------------------------------|


----------------------------------------------------|
--------------1--------------------------------1----|
--2-----2-----2-----0h-2-----0--0h-2----------------|
--3-----------------------2-----------------2-------|
--------------------------3-----------0h-3----------|
----------------------------------------------------|


----------------------------------------------------|
--------------0-----------1-----------3-------------|
--------------0--------0----------------------------|
--------0-----------0-----2-----2-----------2-------|
----------------------------------------------------|
--3-------------------------------------------------|


--------------------0-----0-------------------------|
----------------------------------------------------|
--2-----2-----2--------2--2-------------------------|
----------------------------------------------------|
----------------------------------------------------|
----------------------------------------------------|


CHORUS:
--------------------------------------0-------------|
--1-----------1-----------3-----------1-------------|
--------------2--------2--2--------------------0----|
--3-----3-----------3-----------3-----------0-------|
----------------------------------------------------|
----------------------------------------------------|


--3-----------3h-0--------------3h-0----------------|
--1-----------1-----------3-----------3-----1-------|
-----------------------0--------------0-----0-------|
--------2-----------2-------------------------------|
--3-------------------------------------------------|
--------------------------3-------------------------|


--------------------------------------0-------------|
--------------1-----------3-----------1-------------|
--0h-2-----------------2--2--------------------0----|
--3-----3-----3-----3-----------3-----------0-------|
----------------------------------------------------|
----------------------------------------------------|


--3-----------0-----------------0-------------------|
--------------3-----------3--------3--3-----1-------|
-----------------------0--------------------0-------|
--------2-----------2-----------------2-------------|
--3-----------------------3-------------------------|
----------------------------------------------------|


--------------------------------------0-------------|
--1-----------1-----------3-----------1-------------|
--------------2--------2--2--------------------0----|
--3-----3-----------3-----------3-----------0-------|
----------------------------------------------------|
----------------------------------------------------|


--3-----------3h-0--------------0-------------------|
--1-----------1-----------3--------3--3-----1-------|
-----------------------0--------------0-----0-------|
--------2-----------2-------------------------------|
--3-------------------------------------------------|
--------------------------3-------------------------|

[ Tab from: http://www.guitaretab.com/t/taylor-swift/303297.html ]
--------------0-----------------------0-------------|
--------------1-----------0--------------------0----|
--------2-----------2-----------0-------------------|
--2-----------------------------------------2-------|
--0-------------------------------------------------|
--------------------------3-------------------------|


--------------------0-------------------------------|
--------0-----1-----------1-------------------------|
--2-----------2--------2----------------------------|
--2-----------------------2-------------------------|
----------------------------------------------------|
----------------------------------------------------|


VERSE 2:
--0h-1--------1h-0--------------------0-------------|
--3-----------3-----------0h-1--------1-------------|
-----------2-----------2--2-------------------------|
--0-----0-----------0-----------2-----------2-------|
--------------------------0-------------------------|
----------------------------------------------------|


----------------------------------------------------|
-----------------------------------------------1----|
--0h-2--2-----2-----0--------------0--------0-------|
--3-----3-----3-----------0h-2--2-------------------|
--------------------------3-----------0h-3----------|
----------------------------------------------------|


--------------1h-0--------------------0-------------|
--------------3-----------0h-1--------1-------------|
--------2-----------2-----2-------------------------|
--0-----------------------------2-------------------|
--------------------------0-------------------------|
----------------------------------------------------|


--------------0-----------------------0-------------|
--1-----------1-----------1-----------1-------------|
--2-----------------------0-------------------------|
--3-----3-----------3-----------2-----------0-------|
-----------------------0--3-------------------------|
----------------------------------------------------|


--0-----1-----------0-------|
--3-----3-----1-----1-------|
--------------2-------------|
--0--0-----0-----2-----2----|
--------------0-------------|
----------------------------|


----------------------------------------------------|
-----------------------------------------------1----|
--0h-2--2-----2-----0--------------0--------0-------|
--3-----3-----3-----------0h-2--2-------------------|
--------------------------3-----------0h-3----------|
----------------------------------------------------|


--------------1h-0--------------------0-------------|
--3-----------3-----------1-----------1-------------|
-----------2-----------2--2-------------------------|
--0-----0-----------0-----------2-----------2-------|
--------------------------0-------------------------|
----------------------------------------------------|


--------------------------------------0-------------|
--------------1-----------1-----------1-------------|
--2-----2-----------0h-2----------------------------|
--3-----3-----------------------2-------------------|
--------------------------3-----------3-------------|
----------------------------------------------------|


--0h-1--------1h-0--------------------0-------------|
--3-----------3-----------0h-1--------1-------------|
-----------2-----------2--2-------------------------|
--0-----0-----------0-----------2-----------2-------|
--------------------------0-------------------------|
----------------------------------------------------|


----------------------------------------------------|
--------------------------------------1-------------|
--0h-2--2-----2-----0-----0-----------0-------------|
--3-----3-----3-----------------2-----------2-------|
--------------------------3-------------------------|
----------------------------------------------------|


--1-----------3-------------|-------|
--3-----3-----------3-------|-------|
--------2-------------------|-------|
--0--0--------0-------------|--3----|
----------------------------|-------|
----------------------------|-------|


--------------------0-------------------------------|
--------------1-------------------------------------|
--------2-------------------------------------------|
--3--------------------3L-3-------------------------|
----------------------------------------------------|
----------------------------------------------------|

The second chorus is just strumming these chords:

F F C G

I recommend playing it like this:
E |--------------------0--0----|--3--3--3--3--3--3--3--3----||
B |--1--1--1--1--3--3--3--3----|--1--1--1--1--0--0--0--0----||
G |--2--2--2--2--2--2--2--2----|--0--0--0--0--0--0--0--0----||
D |--3--3--3--3--3--3--3--3----|--2--2--2--2--0--0--0--0----||
A |----------------------------|--3--3--3--3--2--2--2--2----||
E |----------------------------|--------------3--3--3--3----||

Play it 3 times, and end with

A         Em/G (3x2000)    F
(Safe......and.............sound)

Then, for the "oooooh" part, it's the same chords as the chorus, just play them twice as long.

Afterwards:
E |--3-----------3-----------------------3-------------|
B |--1-----------1-----------3-------------------------|
G |--------------2--------2--2--------------------0----|
D |--3-----3-----------3-----------3-----------0-------|
A |----------------------------------------------------|
E |----------------------------------------------------|


--3-----3-------------------|
--------1-----3-------------|
--------------0-------------|
-----2-----2----------------|
--3-----------2-------------|
----------------------------|


--3-----------3-----------------------3-------------|
--1-----------1-----------3-------------------------|
--------------2--------2--2--------------------0----|
--3-----3-----------3-----------3-----------0-------|
----------------------------------------------------|
----------------------------------------------------|


--3-----------3h-0----------------------------------||
--------------1-----------3-------------------------||
-----------------------0--0-------------------------||
--------2-----------2-------------------------------||
--3-----------------------2-------------------------||
----------------------------------------------------||


Like the chorus:

F F C G
A Em/G F

The final set of "ooohhs"

F F C G x 5

End with single strums on F,C, and G.


I believe this is as an accurate of a tab as possible, but like always, I'll take any 
helpful feedback.  Thanks for checking this tab out!
Related for Safe And Sound tab
Safe And Sound chords by Taylor Swift