Song name
# A B C D E F G H I J K L M N O P Q R S T U V W X Y Z

Tegan And Sara - Not Tonight tab

Song: Not Tonight
By: Tegan and Sara
Tabbed by:Madison WIkston

Tuning: Standard

Verses:

e|----------X--X----------X--X--------X-----------X--X--|
B|----------X--X----------X--X--------X-----------X--X--|
G|----------X--X----------X--X--------X--7--7--7--X--X--|
D|--12--12--X--X--10--10--X--X--7--7--X--8--8--8--X--X--|
A|--13--13--X--X--10--10--X--X--8--8--X--8--8--8--X--X--|
E|--10--10--X--X--8---8---X--X--5--5--X--6--6--6--X--X--|

Chorus:

e|----------X--X----------X--X--------X-----------X--X--|
B|----------X--X----------X--X--------X-----------X--X--|
G|----------X--X----------X--X--------X--7--7--7--X--X--|
D|--12--12--X--X--10--10--X--X--7--7--X--8--8--8--X--X--|
A|--13--13--X--X--10--10--X--X--8--8--X--8--8--8--X--X--|
E|--10--10--X--X--8---8---X--X--5--5--X--6--6--6--X--X--|


Love pull your sore ribs in
I will pull your tangles out
In the back of your car I feel like
I have traveled nowhere
What will bring me home?
What will make me stay, stay?
What will bring me home?
What will make me stay, stay?
Well I don't know
I don't know, ooh
I don't know
I don't know, ooh
Everything in my body says not tonight
Everything in my body says no
Everything in my body says not tonight
Everything in my body says no
What will bring me home?
What will make me stay, stay?
What will bring me home?
What will make me stay, stay?
Well I don't know
I don't know, ooh
I don't know
I don't know, ooh
Tap to rate this tab
# A B C D E F G H I J K L M N O P Q R S T U V W X Y Z