Song name
# A B C D E F G H I J K L M N O P Q R S T U V W X Y Z

Tegan And Sara - Take Me Anywhere tab

Verse

e------------------|
B------------------|
G--13--8--10--8----|
D--13--8--10--8----|
A--11--6--8---6----|
E------------------|

"take me by the hand and..."
e------------------|
B------------------|
G---10-------------|
D---10-------------|
A---8--------------|
E------------------|

chorus

e-----------------|
B-----------------|
G------8----------|
D--6---8----------|
A--6---6----------|
E--4--------------|

"and it goes..."
e--------------------------------------------------|
B--------------------------------------------------|
G---6-x-6-6---6-x-6-6----8-8--8-8--8-8-------------|
D---6-x-6-6---6-x-6-6----8-8--8-8--8-8-------------|
A---4-x-4-4---4-x-4-4----6-6--6-6--6-6-------------|
E----------------------------------------6-8-6-4-3-|
Tap to rate this tab
# A B C D E F G H I J K L M N O P Q R S T U V W X Y Z