Song name
# A B C D E F G H I J K L M N O P Q R S T U V W X Y Z

Television - Prove It tab

Prove It by Television

e:------------10-------|------------10-------|
b:----------10---------|----------10---------|
g:--------11-----------|--------11-----------|
d:------12-------------|------12-------------|4x as intro (from 2nd time with 2nd guit)
a:----12---------------|----12---------------|
e:10-------------10-10-|x--------------10-10-|

2nd Guitar (plays flageolets: g/5, b/7, g/7, d/7, a/7, d/12, a/12)


Verse:
  D                     D                     Bm                 Bm
e:------------10-------|------------10-------|------------7-----|------------7-----|
b:----------10---------|----------10---------|----------7-------|----------7-------|
g:--------11-----------|--------11-----------|--------7---------|--------7---------|
d:------12-------------|------12-------------|------9-----------|------9-----------|
a:----12---------------|----12---------------|----9-------------|----9-------------|
e:10-------------10-10-|10-------------10-10-|7-------------7-7-|7-------------7-7-|
  G                   A                   D                     D
e:------------3------|------------5------|------------10-------|------------10-------|
b:----------3--------|----------5--------|----------10---------|----------10---------|
g:--------4----------|--------6----------|--------11-----------|--------11-----------|
d:------5------------|------7------------|------12-------------|------12-------------|
a:----5--------------|----7--------------|----12---------------|----12---------------|
e:3--------------3-3-|5--------------5-5-|10-------------10-10-|10-------------10-10-|

play 2x


Pre Chorus:
e:10---------------------|------------|---------------------|
b:-----13-12-10----------|------------|10b--10b--10b--12----|
g:---------------12-11-9-|------------|---------------------|
d:-----------------------|12-11-------|---------------------|
a:-----------------------|------------|---------------------|
e:-----------------------|------------|---------------------|

e:10---------------------|------------|5--------------------|----------------|
b:-----13-12-10----------|------------|5--------5-----------|----------------|
g:---------------12-11-9-|------------|6----6---------------|----------------|
d:-----------------------|12-11-------|7--7---7-------------|7---7---9---9---|
a:-----------------------|------------|7--------------------|7---7---9---9---|
e:-----------------------|------------|5--------------------|5---5---7---7---|

Chorus (Iīm not really sure about that, comment if you have a better solution)
e:----------------|----------------|----------5-----|----------------|
b:------5---------|----------------|------5-----5---|------5---------|
g:----6-----6-----|------6---------|----6---------6-|----6-----6-----|
d:--7---------7---|----7-----7-----|--7-------------|--7---------7---|
a:7-------------7-|--7---------7---|7---------------|7-------------7-|
e:----------------|5-------------5-|----------------|----------------|

e:----------5-----|----------------|17-16-14-------------|--------------------------|
b:------5-----5---|------5---------|---------17----15-14-|--------------------------|
g:----6---------6-|----6-----6-----|---------------------|16---14-------------------|
d:--7-------------|--7---------7---|---------------------|--------17-16-14----------|
a:7---------------|7-------------7-|---------------------|-----------------17-16-14-|
e:----------------|----------------|---------------------|--------------------------|

e:---------------------|-----------------14---|
b:---------------------|--------14-15-17------|
g:---------------------|14---16---------------|
d:---------14----16-17-|----------------------|
a:14-16-17-------------|----------------------|
e:---------------------|----------------------|

Verse (same as before)

Pre Chorus2:
e:10---------------------|------------|15b--15b--15b--15----|
b:-----13-12-10----------|------------|---------------------|
g:---------------12-11-9-|------------|---------------------|
d:-----------------------|12-11-------|---------------------|
a:-----------------------|------------|---------------------|
e:-----------------------|------------|---------------------|

e:10---------------------|------------|5--------------------|----------------|
b:-----13-12-10----------|------------|5--------5-----------|----------------|
g:---------------12-11-9-|------------|6----6---------------|----------------|
d:-----------------------|12-11-------|7--7---7-------------|7---7---9---9---|
a:-----------------------|------------|7--------------------|7---7---9---9---|
e:-----------------------|------------|5--------------------|5---5---7---7---|

Chorus (same as before)


Solo (itīs played in B dorian, I did the beginning, itīll probably follow)

Verse

Pre Chorus1:

Chorus

Outro:
e:--------------|--------------|--------------|--------------|7----------|
b:10brb-7h8-----|10brb-7h8-----|10brb-7h8-----|10brb-7h8-----|7----------|
g:----------9---|----------9---|----------9---|----------9---|8----------|
d:--------------|--------------|--------------|--------------|-----------|
a:--------------|--------------|--------------|--------------|-----------|
e:--------------|--------------|--------------|--------------|-----------|
Tap to rate this tab
# A B C D E F G H I J K L M N O P Q R S T U V W X Y Z