Guitaretab - guitar tabs
Song name
# A B C D E F G H I J K L M N O P Q R S T U V W X Y Z

Temptations - My Girl tab

I couldn't find a right tab for this song so I tabbed it... here it it:
It's basically repeating 2 diferent chords throughout the whole song:

First:

e|--------------|\
B|-----------1--| \
G|-------0-2----|  \Repeat x2 times
D|---0-2--------|  /
A|-3------------| /
E|--------------|/

e|--------------|--------------|--------------|--------------|
B|-----------1--|--------------|-----------1--|--------------|
G|-------0-2----|--------------|-------0-2----|--------------|
D|---0-2--------|---------0-3--|---0-2--------|---------0-3--|
A|-3------------|-----0-3------|-3------------|-----0-3------|
E|--------------|-1-3----------|--------------|-1-3----------|

 I've got sunshine   on a cloudy day

e|--------------|--------------|--------------|--------------|
B|-----------1--|--------------|-----------1--|--------------|
G|-------0-2----|--------------|-------0-2----|--------------|
D|---0-2--------|---------0-3--|---0-2--------|---------0-3--|
A|-3------------|-----0-3------|-3------------|-----0-3------|
E|--------------|-1-3----------|--------------|-1-3----------|

 When it's cold outside,   I've got the month of May

CHORUS:
I guess you say
what can make me feel this way
My girl.... My girl.... My girl....
Talking 'bout my girl  (My girl....)

e|--------------|--------------|--------------|--------------|
B|-----------1--|--------------|-----------1--|--------------|
G|-------0-2----|--------------|-------0-2----|--------------|
D|---0-2--------|---------0-3--|---0-2--------|---------0-3--|
A|-3------------|-----0-3------|-3------------|-----0-3------|
E|--------------|-1-3----------|--------------|-1-3----------|

 I've got so much honey , the bees envy me

e|--------------|--------------|--------------|--------------|
B|-----------1--|--------------|-----------1--|--------------|
G|-------0-2----|--------------|-------0-2----|--------------|
D|---0-2--------|---------0-3--|---0-2--------|---------0-3--|
A|-3------------|-----0-3------|-3------------|-----0-3------|
E|--------------|-1-3----------|--------------|-1-3----------|
[ Tab from: http://www.guitaretab.com/t/temptations/19140.html ]
 I've got a sweeter song, than the birds and the trees

CHORUS:
Well, I guess you say
what can make me feel this way
My girl.... My girl.... My girl....
Talking 'bout my girl  (my girl....)

then some bass is played, but when the violin starts, play this:

e|--------------|\
B|-----------1--| \
G|-------0-2----|  \Repeat x2 times
D|---0-2--------|  /
A|-3------------| /
E|--------------|/

e|--------------|--------------|--------------|--------------|
B|-----------1--|--------------|-----------1--|--------------|
G|-------0-2----|--------------|-------0-2----|--------------|
D|---0-2--------|---------0-3--|---0-2--------|---------0-3--|
A|-3------------|-----0-3------|-3------------|-----0-3------|
E|--------------|-1-3----------|--------------|-1-3----------|

play with violin:
e|--------------|--------------|
B|--------------|--------------|
G|---------0-2-2|---------0-222|
D|-----0-2------|-----0-2------|
A|-2-2----------|-2-2----------|
E|--------------|--------------|

Then,

e|-----------1--|--------------|-----------1--|--------------|
B|-------1-3----|--------------|-------1-3----|--------------|
G|---0-2--------|---------0-3--|---0-2--------|---------0-3--|
D|-3------------|-----0-3------|-3------------|-----0-3------|
A|--------------|-1-3----------|--------------|-1-3----------|
E|--------------|--------------|--------------|--------------|

 I don't need no money, fortune or fame

e|-----------1--|--------------|-----------1--|--------------|
B|-------1-3----|--------------|-------1-3----|--------------|
G|---0-2--------|---------0-3--|---0-2--------|---------0-3--|
D|-3------------|-----0-3------|-3------------|-----0-3------|
A|--------------|-1-3----------|--------------|-1-3----------|
E|--------------|--------------|--------------|--------------|

 I've got all the riches- baby, one man can claim

CHORUS:
I guess you say
what can make me feel this way
My girl.... My girl.... My girl....
Talking 'bout my girl  (My girl....) (Talking 'bout my girl....)

I've got sunshine on a cloudy day with my girl...
I've even got the month of May with my girl...


Tabbed by Christophe Bourlon
Related for My Girl tab
My Girl chords by Temptations