Guitaretab - guitar tabs
Song name
# A B C D E F G H I J K L M N O P Q R S T U V W X Y Z

Tenacious D - Wonderboy tab

artist- tenacious d
song- wonderboy
tuning- drop d
d-a-d-g-b-e

chords (these are just some of the harder chords)

  D5  D5/C#   Bm7  Asus4   G5   A5   D5type2   C5   D5type3    Bb/D  Bbadd#4
|---------------------------------------------------------------------0---|
|-3----3------3-----3----------------3--------------------------------3---|
|-2----2------2-----2----------------2----------4-----2--------3------3---|
|-0-----------0-----2------5----7----0----------4-----0--------0------3---|
|------3------2-----0------5----7----0----------2-------------------------|
|--------------------------5----7----0------------------------------------|


ok lets start

guitar 1 (riff 1)
 D                      Bbadd#4              D

|---2------2h3p2----------1p0------1p0---------|
|-----3----------3---3--------3--------3----3--|
|-------2----------2---3--------3---------3----|  PLAY UP TO THE PALM MUTES
|-0--------------------------------------------|
|----------------------------------------------|
|----------------------------------------------|

guitar 2
    D      Bbadd#d          D        Bbadd#4
|-2/5--5/6--8---8\----6\5---5----5/6--6-----9-----6---|
|-3/7--7/8--6---10\---8\7---7----7/8--8-----11----8---|
|-----------------------------------------------------|
|-----------------------------------------------------|
|-----------------------------------------------------|
|-----------------------------------------------------|
D                          Bbadd#4
high abovethe muck-y-muck   castle made of clouds
D                    Bbadd#4
there sits wonderboy  sitting all so proudly

guitar 1 and 2
     P P P P P P P P      P P P P P P P P     P P P P P P P P
|-------------------------------------------------------------------|
|-3--3-3-3-3-3-3-3-3---3--3-3-3-3-3-3-3-3--3--3-3-3-3-3-3-3-3--3--3-|
|-2--2-2-2-2-2-2-2-2---2--2-2-2-2-2-2-2-2--2--2-2-2-2-2-2-2-2--2--2-|
|-0--0-0-0-0-0-0-0-0-----------------------0--0-0-0-0-0-0-0-0--2--2-|
|----------------------3--3-3-3-3-3-3-3-3--2--2-2-2-2-2-2-2-2--0--0-|
|-------------------------------------------------------------------|

---------------------|
---------------3-3-3-|
---------------2-2-2-|
-3-3-3--5-5-5--0-0-0-|
-3-3-3--5-5-5--------|
-3-3-3--5-5-5--------|

 D5type2            D            Bbadd#4
   wonder-boy        what is the secret of your power
|---2------2h3p2----------1p0------1p0---------|
|-----3----------3---3--------3--------3----3--|
|-------2----------2---3--------3---------3----|
|-0--------------------------------------------|
|----------------------------------------------|
|----------------------------------------------|


guitar 1 and 2
     P P P P P P P P      P P P P P P P P     P P P P P P P P
|-------------------------------------------------------------------|
|-3--3-3-3-3-3-3-3-3---3--3-3-3-3-3-3-3-3--3--3-3-3-3-3-3-3-3--3--3-|
|-2--2-2-2-2-2-2-2-2---2--2-2-2-2-2-2-2-2--2--2-2-2-2-2-2-2-2--2--2-|
|-0--0-0-0-0-0-0-0-0-----------------------0--0-0-0-0-0-0-0-0--2--2-|
|----------------------3--3-3-3-3-3-3-3-3--2--2-2-2-2-2-2-2-2--0--0-|
|-------------------------------------------------------------------|

---------------------|
---------------3-3-3-|
---------------2-2-2-|
-3-3-3--5-5-5--0-0-0-|
-3-3-3--5-5-5--------|
-3-3-3--5-5-5--------|


D                Bbadd#4              D             Bbadd#4


Verse
D                                             Bbadd#4              D
now its ime to tell you about young nastyman,   archrival of wonder boy
    D
  with powers comparable to  wonderboy


guitar 1 and 2
     P P P P P P P P      P P P P P P P P     P P P P P P P P
|-------------------------------------------------------------------|
|-3--3-3-3-3-3-3-3-3---3--3-3-3-3-3-3-3-3--3--3-3-3-3-3-3-3-3--3--3-|
|-2--2-2-2-2-2-2-2-2---2--2-2-2-2-2-2-2-2--2--2-2-2-2-2-2-2-2--2--2-|
|-0--0-0-0-0-0-0-0-0-----------------------0--0-0-0-0-0-0-0-0--2--2-|
|----------------------3--3-3-3-3-3-3-3-3--2--2-2-2-2-2-2-2-2--0--0-|
|-------------------------------------------------------------------|


------------------------------------------------------0-0--0---0--0--0-|
-3--3-3-3-3-3-3-3-3---3-3-3-3-3-3-3-3--3-3-3-3-3-3-3--0-0--0---0--0--0-|
-2--2-2-2-2-2-2-2-2---2-2-2-2-2-2-2-2--2-2-2-2-2-2-2--0-0--0---0--0--0-|
-2--2-2-2-2-2-2-2-2---0-0-0-0-0-0-0-0--0-0-0-0-0-0-0-------2---------2-|
-0--0-0-0-0-0-0-0-0----------------------------------------2---------2-|
----------------------5-5-5-5-5-5-5-5--4-4-4-4-4-4-4-------2---------2-|
    thats telekinesis  kyle
--------------------------------------------|-12b-12----------------------|
-2-2-3-3-3-5-5-5-7-7-7-8-8-8------10-10-10--|---------10b---10-----11--10-|
--------------------------------------------|-------------------12--------|
-2-2-4-4-4-5-5-5-7-7-7-9-9-9------11-11-11--|-----------------------------|
--------------------------------------------|-----------------------------|
--------------------------------------------|-----------------------------|

Verse
D             Bbadd#4               D
history of wonder boy     and young nasty man______

  Bbadd#4
 rig ga goo goo riga goo goo
|----------------------------|
|----------------------------|
|----------------------------|
|-8--8--8--8--8--8--8--8--8--|
|-5--5--5--5--5--5--5--5--5--|
|----------------------------|

guitar 1 and 2
     P P P P P P P P      P P P P P P P P     P P P P P P P P
|-------------------------------------------------------------------|
|-3--3-3-3-3-3-3-3-3---3--3-3-3-3-3-3-3-3--3--3-3-3-3-3-3-3-3--3--3-|
|-2--2-2-2-2-2-2-2-2---2--2-2-2-2-2-2-2-2--2--2-2-2-2-2-2-2-2--2--2-|
|-0--0-0-0-0-0-0-0-0-----------------------0--0-0-0-0-0-0-0-0--2--2-|
|----------------------3--3-3-3-3-3-3-3-3--2--2-2-2-2-2-2-2-2--0--0-|
|-------------------------------------------------------------------|

---------------------|
---------------3-3-3-|
---------------2-2-2-|
-3-3-3--5-5-5--0-0-0-|
-3-3-3--5-5-5--------|
-3-3-3--5-5-5--------|

chorus

 D5type2            D            Bbadd#4
   wonder-boy        what is the secret of your power
|---2------2h3p2----------1p0------1p0---------|
|-----3----------3---3--------3--------3----3--|
|-------2----------2---3--------3---------3----|
|-0--------------------------------------------|
|----------------------------------------------|
|----------------------------------------------|

[ Tab from: http://www.guitaretab.com/t/tenacious-d/24202.html ]
guitar 1 and 2
     P P P P P P P P      P P P P P P P P     P P P P P P P P
|-------------------------------------------------------------------|
|-3--3-3-3-3-3-3-3-3---3--3-3-3-3-3-3-3-3--3--3-3-3-3-3-3-3-3--3--3-|
|-2--2-2-2-2-2-2-2-2---2--2-2-2-2-2-2-2-2--2--2-2-2-2-2-2-2-2--2--2-|
|-0--0-0-0-0-0-0-0-0-----------------------0--0-0-0-0-0-0-0-0--2--2-|
|----------------------3--3-3-3-3-3-3-3-3--2--2-2-2-2-2-2-2-2--0--0-|
|-------------------------------------------------------------------|

---------------------|
---------------3-3-3-|
---------------2-2-2-|
-3-3-3--5-5-5--0-0-0-|
-3-3-3--5-5-5--------|
-3-3-3--5-5-5--------|


D                         Bbadd#4
man
                                    |--------------------------------------|
                                    |-13b full~~~~~~~~~~-------------------|
                                    |-------------------------------11^~~~~|
                                    |----------------------12\-/8----------|
                                    |--------------------------------------|
                                    |--------------------------------------|

Verse(play riff one over the top)
D
wonderboy and young nastyman joined forces
Bbadd#4                              D
they formed a band and likes of wich have never been seen
                                    D
and they called themselves tenaciouse d

guitar 1 and 2
     P P P P P P P P      P P P P P P P P     P P P P P P P P
|-------------------------------------------------------------------|
|-3--3-3-3-3-3-3-3-3---3--3-3-3-3-3-3-3-3--3--3-3-3-3-3-3-3-3--3--3-|
|-2--2-2-2-2-2-2-2-2---2--2-2-2-2-2-2-2-2--2--2-2-2-2-2-2-2-2--2--2-|
|-0--0-0-0-0-0-0-0-0-----------------------0--0-0-0-0-0-0-0-0--2--2-|
|----------------------3--3-3-3-3-3-3-3-3--2--2-2-2-2-2-2-2-2--0--0-|
|-------------------------------------------------------------------|


--------------------------|
-3--3-3-3---------------3-|
-2--2-2-2----------5-5--2-|
-2--2-2-2----5--3--5-5--0-|
-0--0-0-0----5--3--3-3----|
-------------5--3---------|

come fly with me fly

solo

guitar 1

 D5                         Bb/D
|-10----10----10----10--12--12b--10-----------------------|
|----10----10----10-----------------10--10h11--10-----11--|
|--------------------------------------------------12-----|
|---------------------------------------------------------|
|---------------------------------------------------------|
|---------------------------------------------------------|
 D5
-15p14p12-15p14p12-15p14p12-15p14p12-15p14p12-15p14p12-15p14p12-15p14p12-|
-------------------------------------------------------------------------|
-------------------------------------------------------------------------|
-------------------------------------------------------------------------|
-------------------------------------------------------------------------|
-------------------------------------------------------------------------|
 Bb/D
-17p15p14----14-------------------------------------------------|
----------17----17-15-17-15-13-15-13---13-----13-13h14p13----13-|
-------------------------------------15---15--------------15----|
----------------------------------------------------------------|
----------------------------------------------------------------|
----------------------------------------------------------------|
 D5                     D5/C#                  Bm7
|---------------------------------------------------------------------|
|-10---10--8--8--7--8---/10----10--8--8--7--8--7--7--5--5--3--3--2--2-|
|-11---11--9--9--7--9---/11----11--9--9--7--9--7--7--6--6--4--4--2--2-|
|---------------------------------------------------------------------|
|---------------------------------------------------------------------|
|---------------------------------------------------------------------|
 Asus4    G5      A5       D5
---------------------------------|
-0--2--3--5----7--5----3--2----3-|
-0--2--4--6----7--6----4--2----2-|
---------------------------------|
---------------------------------|
---------------------------------|


chorus


D5type2            D            Bbadd#4
   wonder-boy        what is the secret of your power
|---2------2h3p2----------1p0------1p0---------|
|-----3----------3---3--------3--------3----3--|
|-------2----------2---3--------3---------3----|
|-0--------------------------------------------|
|----------------------------------------------|
|----------------------------------------------|


guitar 1 and 2
     P P P P P P P P      P P P P P P P P     P P P P P P P P
|-------------------------------------------------------------------|
|-3--3-3-3-3-3-3-3-3---3--3-3-3-3-3-3-3-3--3--3-3-3-3-3-3-3-3--3--3-|
|-2--2-2-2-2-2-2-2-2---2--2-2-2-2-2-2-2-2--2--2-2-2-2-2-2-2-2--2--2-|
|-0--0-0-0-0-0-0-0-0-----------------------0--0-0-0-0-0-0-0-0--2--2-|
|----------------------3--3-3-3-3-3-3-3-3--2--2-2-2-2-2-2-2-2--0--0-|
|-------------------------------------------------------------------|

---------------------|
---------------3-3-3-|
---------------2-2-2-|
-3-3-3--5-5-5--0-0-0-|
-3-3-3--5-5-5--------|
-3-3-3--5-5-5--------|


Outro

|-2h3--2--0--2--2h3--2--0--2--0h1--0-----0--0h1--0---3--------------------|
|-------------------------------------3------------3----------------------|
|----------------------------------------------------------14----------14-|
|-------------------------------------------------------------------------|
|----------------------------------------------------------12----------12-|
|-------------------------------------------------------0---------0-------|

-----------------------------|
-----------------------------|
-15--15--15--15--15--15--15--|
-----------------------------|
-13--13--13--13--13--13--13--|
-----------------------------|

D5                                        Bb/D
you take the hight road        i take the low road

|------------------------------------------------------------|
|------------------------------------------------------------|
|-2----------------------------2-----------3-----3h5---3--0--|
|-0----------------------------0-----------0-----0-----0--0--|
|------------------------------------------------------------|
|------------------------------------------------------------|
 D5                                       Bb/D                D5__________
there the cre - vasse                fill it with your mighy juice
|--------------------------------------------------------------3-|
|--------------------------------------------------------------2-|
|-2-----------------------------------2--3--3h5-----3--0---2-----|
|-0-----------------------------------0--0--0-------0--0---0-----|
|----------------------------------------------------------------|
|----------------------------------------------------------------|

P= palm mute

well there you go this is extremly accurate but if there is any corrections please feel 
to comment

jason_guitars @hotmail.com
Related for Wonderboy tab