Song name
# A B C D E F G H I J K L M N O P Q R S T U V W X Y Z

Tenacious D - Wonderboy tab

Intro:
Guitar 1:
E|---2-----2h3p2--------1p0-----1p0---------2-----2h3p2-------1p0-----1p0-------
B|-----3-----------3--------3-------3---3-----3-----------3-------3-------3---3- 
G|-------2-------2----3-------3-------3---------2-------2---3-------3-------3---
D|-0--------------------------------------0-------------------------------------
A|------------------------------------------------------------------------------
E|------------------------------------------------------------------------------
Play this part 3 times 
                                                                             
Guitar 2 (Comes in 2nd the 2nd time the 1st guitar plays the riff above):
E|-----------------------------5/6-6---8-6/5----5/6-6----9--6--5----------------
B|-----------------------3/10--7/8-8--10-8/7----7/8-8----8--8--7----------------
G|------------------------------------------------------------------------------
D|------------------------------------------------------------------------------ 
A|------------------------------------------------------------------------------
E|------------------------------------------------------------------------------

Verse 1:
Guitar 1:
Keeps playing the intro riff

Guitar 2:                                                                   
E|------------------------------------------------------------------------------
B|------------------------------------------------------------------------------
G|-7-7-7-7-7-7-7-7-6-6-6-6-6-6-6-6-----------------------------7----------------
D|-7-7-7-7-7-7-7-7-6-6-6-6-6-6-6-6-5-5-5-5-5-5-5-5-7-7-7-7-5-7-7----------------
A|-5-5-5-5-5-5-5-5-4-4-4-4-4-4-4-4-5-5-5-5-5-5-5-5-7-7-7-7-5-7-5----------------
E|---------------------------------3-3-3-3-3-3-3-3-5-5-5-5-3-5------------------
 Not much to say When you're high above the mucky muck... Yeeaaah! 

Chorus:
Guitar 1:
E|---5--3-2---2-----2----------5p3-----5p3--------------------------------------
B|--------------3-----3---2--------3-------3------------------------------------
G|-3--------------2-----2----3-------3------------------------------------------
D|----------0-------------------------------------------------------------------
A|------------------------------------------------------------------------------
E|------------------------------------------------------------------------------
WonderBooyeee! What is the secret of your powers?!  

Guitar 2:                                                                    
E|------------------------------------------------------------------------------
B|------------------------------------------------------------------------------
G|-7-7-7-7-7-7-7-7-6-6-6-6-6-6-6-6-----------------------------7----------------
D|-7-7-7-7-7-7-7-7-6-6-6-6-6-6-6-6-5-5-5-5-5-5-5-5-7-7-7-7-5-7-7----------------
A|-5-5-5-5-5-5-5-5-4-4-4-4-4-4-4-4-5-5-5-5-5-5-5-5-7-7-7-7-5-7-5----------------
E|---------------------------------3-3-3-3-3-3-3-3-5-5-5-5-3-5------------------
WonderBoooyeeeee! Won't you take me far away from the mucky-muck, man?

Verse 2:
E|------------------------------------------------------------------------------
B|------------------------------------------------------------------------------
G|-7-7-7-7-7-7-7-7-6-6-6-6-6-6-6-6-4-4-4-4-4-4-4-4------------------------------
D|-7-7-7-7-7-7-7-7-6-6-6-6-6-6-6-6-4-4-4-4-4-4-4-4-7-7-7-7-7-7-7-7--------------
A|-5-5-5-5-5-5-5-5-4-4-4-4-4-4-4-4-2-2-2-2-2-2-2-2-7-7-7-7-7-7-7-7--------------
E|-------------------------------------------------5-5-5-5-5-5-5-5--------------
What powers you ask?.... how about the power of flight, that do anything for you? Thats levetation holmes.How bout the power to kill a 

E|------------------------------------------------------------------------------
B|------------------------------------------------------------------------------
G|------------------------------------------------------------------------------
D|-5-5-5-5-5-5-5-5-4-4-4-4-4-4-4-4-1-1-1-1-1-1-1-1------------------------------
A|-5-5-5-5-5-5-5-5-4-4-4-4-4-4-4-4-2-2-2-2-2-2-2-2------------------------------
E-3-3-3-3-3-3-3-3-2-2-2-2-2-2-2-2-2-2-2-2-2-2-2-2-------------------------------
 yak from 200 yards away, with mind bullets!  

                                                                             
E|--0/0-0/0-0/0-0/0-0-----9--------------12^-10---------------------------------
B|--1/2-2/3-3/5-5/7-8----10---------------------10^-9-8-11-10-------------------
G|------------------------------------------------------------------------------
D|------------------------------------------------------------------------------
A|------------------------------------------------------------------------------
E|------------------------------------------------------------------------------
Thats telekenesis kyle!... How about the power to move you

E|------------------------------------------------------------------------------
B|------------------------------------------------------------------------------
G|-7-7-7-7-7-7-7-7-6-6-6-6-6-6-6-6-4-4-4-4-4-4-4-4---------------7--------------
D|-7-7-7-7-7-7-7-7-6-6-6-6-6-6-6-6-4-4-4-4-4-4-4-4-7-7-7-7-5--7--7--------------
A|-5-5-5-5-5-5-5-5-4-4-4-4-4-4-4-4-2-2-2-2-2-2-2-2-7-7-7-7-5--7--5--------------
E|-------------------------------------------------5-5-5-5-3--5-----------------
A secret to be told A gold chest- to be bold! Blasting forth with three-part harmony!

*PLAY CHORUS AGAIN*

Verse 3:
Guitar 1:                                                                        
E|---------2-----------5p3--------------vv---vv---------------------------------
B|---3-------3---2---------3---5---3----3----3--vv-vvvvvvvvv--------------------
G|-----2-------2-----3-------3---3-------------03--2/3\2/3\2--------------------
D|-0-----0----------------------------0-----------------------------------------
A|------------------------------------------------------------------------------
E|------------------------------------------------------------------------------
Well Wonderboy and Young Nastyman joined forces And they formeda band The likes of 
which have never been seen. And they called themselves Tenacious D..... Thats right!                                                                        

Guitar 2:
E|------------------------------------------------------------------------------
B|------------------------------------------------------------------------------
G|-7-7-7-7-7-7-7-7-6-6-6-6-6-6-6-6-4-4-4-4-4-4-4-4---------------7-------7------
D|-7-7-7-7-7-7-7-7-6-6-6-6-6-6-6-6-4-4-4-4-4-4-4-4-7-7-7-7-5--7--7----7--7------
A-5-5-5-5-5-5-5-5-4-4-4-4-4-4-4-4-2-2-2-2-2-2-2-2-7-7-7-7-5--7--5----7--5------
E|-------------------------------------------------5-5-5-5-3--5-------5---------
ME! and KG!(Thats ME!)with (blawh!) TenaAaaaaaaaAacious D! Come fly with me! FLY!

Solo:				  
E|-10----10----10----10-12-12^-10-----------------------------------------------
B|----10----10----10--------------10-10^-8-11-10--------------------------------
G|------------------------------------------------------------------------------
D|------------------------------------------------------------------------------
A|------------------------------------------------------------------------------
E|------------------------------------------------------------------------------
                                                                              
E|-15p14p12--
B|-----------
G|-----------   <------- play this 8 times (very very quickly)
D|-----------
A|-----------
E|-----------

E|-17p15p14-12h14p12-10h12p10-8h10p8--------------B-----------------------------
B|-----------------------------------11-13-11-13-13-13-11-13--------------------
G|-----------------------------------------------------------------------------
D|------------------------------------------------------------------------------
A|------------------------------------------------------------------------------
E|------------------------------------------------------------------------------
                                                                              
E|------------------------------------------------------------------------------
B|------------------------------------------------------------------------------
G|-11-11/9-9-7-9-11-11/9-9-7-9-7-6-4-2------------------7-----------------------
D|--x--x-x-x-x-x--x--x-x-x-x-x-x-x-x-2--5-7-5-7-9-7-5-7-x-----------------------
A|--9--9/7-7-5-7--9--9/7-7-5-7-5-4-2-0--x-x-x-x-x-x-x-x-5-----------------------
E|--------------------------------------3-5-3-5-7-5-3-5-------------------------

*PLAY THE CHORUS AGAIN*

Outro:
Guitar 1:
E|----------------V V V V V 
B|8-7--7-8-7---7--7---------
G|----9------9--------------
D|--------------------------
A|--------------------------
E|--------------------------	
Repeat til it says:you take the high road I'll take the low...

Guitar 2:
E|------------
B|------------
G|-7----------
D|-7-----8----
A|-5-----8----
E|-------6----
Repeat til the end
                                                                         

Tap to rate this tab
# A B C D E F G H I J K L M N O P Q R S T U V W X Y Z