Song name
# A B C D E F G H I J K L M N O P Q R S T U V W X Y Z

Tenacious D - Rize Of The Fenix tab

                             Tenacious D
                          Rize of the Fenix
                                2012




|-------------------------------------------------------------|x9
|---------------------------------0---------------------------|
|---------------------------------0---------------------------|
|--2--------2---------2--------2------------------------------|
|--2--------2---------2--------2------------------------------|
|--0-x-x-x--0--x-x-x--0--x-x-x-0------------------------------|


|-------------------------------------------------------------|
|-------------------------------------------------------------|
|--------------------2-2-2-2-2-2-2-2-2-2-2-2----1---1---------|
|--2-2-2-2-2-2-2-2---2-2-2-2-2-2-2-2-2-2-2-2----3---3---------|
|--2-2-2-2-2-2-2-2---0-0-0-0-0-0-0-0-0-0-0-0----3-x-3-x-------|
|--0-0-0-0-0-0-0-0--------------------------------------------|
*Slightly move your palm off the strings

|-------------------------------------------------------------|
|-------------------------------------------------------------|
|-------------------------------------------------------------|
|---5---4---3---2---------------------------------------------|
|---5---4---3---2---------------------------------------------|
|---3---2---1---0---------------------------------------------|

chorus:
|-2-2---2-2----0---0-0----0---0-0-----------------------------|x3
|-2-2---3-3----2---2-2----2---2-2-----------------------------|
|-0-0---2-2----2---2-2----2---2-2-----------------------------|
|-0-0---0-0----2---2-2----2---2-2-----------------------------|
|-2-2----------0---0-0----0---0-0-----------------------------|
|-3-3---------------------------------------------------------|

|--2-2---2-2---1-1--1-1----0----------------------------------|
|--2-2---3-3---1-1--1-1----1----------------------------------|
|--0-0---2-2---3-3--2-2----0----------------------------------|
|--0-0---0-0---3-3--3-3----2----------------------------------|
|--2-2---------3-3--3-3----3----------------------------------|
|--3-3---------1-1--1-1---------------------------------------|


I'll put some more soon.
Tap to rate this tab
 
# A B C D E F G H I J K L M N O P Q R S T U V W X Y Z