Song name
# A B C D E F G H I J K L M N O P Q R S T U V W X Y Z

Tera Melos - Magical tab

ok, so ive never tabed anything before, but i'm an experienced guitarist, so you can trust me


e--------------|
B--------------|
G---7/9--------| x4
D--------10-7--|
A--------------|
E--------------|


e---------------|
B---------------|
G---7/9-7-------|
D----------10-7-|
A---------------|
E---------------|

e--------------|
B--------------|
G---7/9--------| x3
D--------10-7--|
A--------------|
E--------------|


e---------------|
B---------------|
G---7/9-7-------|
D----------10-7-|
A---------------|
E---------------|

e--------------|
B--------------|
G---7/9--------| x3
D--------10-7--|
A--------------|
E--------------|

____________________________________________________________________________

then as for the 2nd guitar it comes in around the last part and goes:

e----------------|
B-----7h9--------|
G-6/8------------| x4
D----------------|
A----------------|
E----------------|

then once it plays 4 times it goes:


e----------------|
B-7--------------|
G-8--------------|
D----------------|
A----------------|
E----------------|

it repetes a couple of times and then plays the same note, but slides all the way down


thats all i know so far, might try to tab the rest later
Tap to rate this tab
 
# A B C D E F G H I J K L M N O P Q R S T U V W X Y Z