Song name
# A B C D E F G H I J K L M N O P Q R S T U V W X Y Z

Tera Melos - Trident Trail tab

The rest of the song seems like it would be difficult to tab, especially with the
use of whammy pedal. The outro is practically a song on itself, so here it goes:

e-----------------------------------------3-----------------|
B-------------------------------3------2--------------------|
G-4--7--11--11--11--11-------------------------0------------|
D-4--7--11--11--11--11--0-2-3-4------2-------1-----1--1--1--|
A-5-----12--12--12--12------------0----------2-----2--2--2--|
E-3--7--10--10--10--10-----------------------2-----2--2--2--|

Do that a bunch of times and then do this:

e--------------0---0-----------------------------------------6-5------------2--|
B------------3---3------------------------------------------------3--5---5-----|
G-4---2--0-----------------------------------2---------7-----------------------|
D--------------------------------2----2-3-4---------4----4---------------------|
A------------2---------2-3-4-5------5-------------5----------------------------|
E-3---2--0--------------------------------------------------------3------2-----|

e----0------10----------------------|
B-3------0---------8--10--12--------|
G-1-------------9--------------8----|
D-----------------------------------|
A-----------------------------------|
E-0------0------8--------------7----|

Here's a video of me playing it for reference and ideal fingerings.

http://www.youtube.com/watch?v=19zIZaMh0vE
Tap to rate this tab
 
# A B C D E F G H I J K L M N O P Q R S T U V W X Y Z