Song name
# A B C D E F G H I J K L M N O P Q R S T U V W X Y Z

Testament - Last Call tab

#----------------------------------PLEASE NOTE---------------------------------#
#This file is the author's own work and represents their interpretation of the #
#song. You may only use this file for private study, scholarship, or research. #
#------------------------------------------------------------------------------#

LAST CALL
As recorded by Testament
(From the 1994 Album LOW)

Transcribed by Dead Beaver
	

Music by Peterson

Gtr I (Eb Ab Db Gb Bb Eb) - 'Untitled'
Gtr II (Eb Ab Db Gb Bb Eb) - 'Untitled'

   Intro
    H.=41
    N.C.
   6/4
    Gtr I
                     ~~~~~~~~~~~~~~~
     |---3---|
     H      +Q   Q   H.         +W.
||---------------------------|-----------------|
||o--------------------------|-----------------|
||---7b8r===(7)------8-------|--(8)------------|
||---------------8-----------|-----------------|
||o--------------------------|-----------------|
||---------------------------|-----------------|
|
|   Gtr II
|                    ~~~~~~~~~~~~~~~
|    |---3---|
|    H      +Q   Q   H.         +W.
||---------------------------|-----------------|
||o--------------------------|-----------------|
||--10b11r=(10)-----11-------|-(11)------------|
||--------------11-----------|-----------------|
||o--------------------------|-----------------|
||---------------------------|-----------------|


                  ~~                          ~~~
   |---3---|
   H      +Q   Q  H.        +H          +Q   +H.
|-------------------------|-------------------------|
|-------------------------|-------------------------|
|--7b8r===(7)-------------|-------------------------|
|--------------8--6-------|-(6)b7.5r====(6)--(6)----|
|-------------------------|-------------------------|
|-------------------------|-------------------------|
|
|                 ~~                          ~~~
|  |---3---|
|  H      +Q   Q  H.        +H          +Q   +H.
|-------------------------|-------------------------|
|-------------------------|-------------------------|
|-10b11r=(10)-------------|-------------------------|
|-------------11--9-------|-(9)b10.5r===(9)--(9)----|
|-------------------------|-------------------------|
|-------------------------|-------------------------|


  N.C.
                   ~~~~~~~~~~~~~~~~~~~~~~~~
   |---3---|
   H      +Q   Q   H.         +H.       H.
|--------------------------|--------------------|
|--------------------------|--------------------|
|--7b8r===(7)------8-------|--(8)-------8-------|
|--------------8-----------|--------------------|
|--------------------------|--------------------|
|--------------------------|--------------------|
|
|                  ~~~~~~~~~~~~~~~~~~~~~~~~
|  |---3---|
|  H      +Q   Q   H.         +H.       H.
|--------------------------|--------------------|
|--------------------------|--------------------|
|-10b11r=(10)-----11-------|-(11)------11-------|
|-------------11-----------|--------------------|
|--------------------------|--------------------|
|--------------------------|--------------------|


                     ~~~~~~~~~~~~~~~
    |---3----|                         |3-|  |3-|
   +H       +Q   Q   H.         +Q.    E  Q  E  q E H
|----------------------------|---------------------------|
|----------------------------|---------------------------|
|--(8)b10---(8)--8---7-------|--(7)----7--7--8-10--------|
|----------------------------|---------------------------|
|----------------------------|---------------------------|
|----------------------------|---------------------------|
|
|                    ~~~~~~~~~~~~~~~
|   |---3----|                         |3-|  |3-|
|  +H       +Q   Q   H.         +Q.    E  Q  E  q E H
|----------------------------|---------------------------|
|----------------------------|---------------------------|
|-(11)b13--(11)-11--10-------|-(10)---10-10-11-13--------|
|----------------------------|---------------------------|
|----------------------------|---------------------------|
|----------------------------|---------------------------|


  N.C.
 3/4        6/4
   ~~~~~~~~~~~~~~~
   H.         +W.
|----------|-----------------|
|----------|-----------------|
|--8-------|--(8)------------|
|----------|-----------------|
|----------|-----------------|
|----------|-----------------|
|
|  ~~~~~~~~~~~~~~~
|  H.         +W.
|----------|-----------------|
|----------|-----------------|
|-11-------|-(11)------------|
|----------|-----------------|
|----------|-----------------|
|----------|-----------------|


                  ~~                          ~~~
   |---3---|
   H      +Q   Q  H.        +H          +Q   +H.
|-------------------------|-------------------------|
|-------------------------|-------------------------|
|--7b8r===(7)-------------|-------------------------|
|--------------8--6-------|-(6)b7.5r====(6)--(6)----|
|-------------------------|-------------------------|
|-------------------------|-------------------------|
|
|                 ~~                          ~~~
|  |---3---|
|  H      +Q   Q  H.        +H          +Q   +H.
|-------------------------|-------------------------|
|-------------------------|-------------------------|
|-10b11r=(10)-------------|-------------------------|
|-------------11--9-------|-(9)b10.5r===(9)--(9)----|
|-------------------------|-------------------------|
|-------------------------|-------------------------|


  N.C.
                   ~~~                      ~~~~
   |---3---|
   H      +Q   Q   H.         +H.          +H.
|--------------------------|------------------------|
|--------------------------|------------------------|
|--7b8r===(7)------8-------|--(8)b10r======(8)------|
|--------------8-----------|------------------------|
|--------------------------|------------------------|
|--------------------------|------------------------|
|
|                  ~~~                      ~~~~
|  |---3---|
|  H      +Q   Q   H.         +H.          +H.
|--------------------------|------------------------|
|--------------------------|------------------------|
|-10b11r=(10)-----11-------|-(11)b13r=====(11)------|
|-------------11-----------|------------------------|
|--------------------------|------------------------|
|--------------------------|------------------------|


                            4/4
                   ~~~~~~~~~~~~~~~
   |---3---|                         |3-|  |3-|
   H      +Q   Q   H.         +Q.    E  Q  E  q E   W
|--------------------------|----------------------|------|
|--------------------------|----------------------|------|
|--8b10---(8)--8---7-------|--(7)----7--7--8-10---|------|
|--------------------------|----------------------|------|
|--------------------------|----------------------|------|
|--------------------------|----------------------|------|
|
|                  ~~~~~~~~~~~~~~~
|  |---3---|                         |3-|  |3-|
|  H      +Q   Q   H.         +Q.    E  Q  E  q E   W
|--------------------------|----------------------|------|
|--------------------------|----------------------|------|
|-11b13--(11)-11--10-------|-(10)---10-10-11-13---|------|
|--------------------------|----------------------|------|
|--------------------------|----------------------|------|
|--------------------------|----------------------|------|


  N.C.
 3/4        6/4
   ~~~~~~~~~~~~~~~
   H.         +W.
|----------|-----------------|
|----------|-----------------|
|--8-------|--(8)------------|
|----------|-----------------|
|----------|-----------------|
|----------|-----------------|
|
|  ~~~~~~~~~~~~~~~
|  H.         +W.
|----------|-----------------|
|----------|-----------------|
|-11-------|-(11)------------|
|----------|-----------------|
|----------|-----------------|
|----------|-----------------|


                  ~~                          ~~~
   |---3---|
   H      +Q   Q  H.        +H          +Q   +H.
|-------------------------|-------------------------|
|-------------------------|-------------------------|
|--7b8r===(7)-------------|-------------------------|
|--------------8--6-------|-(6)b7.5r====(6)--(6)----|
|-------------------------|-------------------------|
|-------------------------|-------------------------|
|
|                 ~~                          ~~~
|  |---3---|
|  H      +Q   Q  H.        +H          +Q   +H.
|-------------------------|-------------------------|
|-------------------------|-------------------------|
|-10b11r=(10)-------------|-------------------------|
|-------------11--9-------|-(9)b10.5r===(9)--(9)----|
|-------------------------|-------------------------|
|-------------------------|-------------------------|


  N.C.
                   ~~~~~~~~~~~~~~~~~~~~~~~~~
   |---3---|
   H      +Q   Q   H.         +H.       +H      Q
|--------------------------|-----------------------|
|--------------------------|-----------------------|
|--7b8r===(7)------8-------|--(8)-------(8)-----8--|
|--------------8-----------|-----------------------|
|--------------------------|-----------------------|
|--------------------------|-----------------------|
|
|                  ~~~~~~~~~~~~~~~~~~~~~~~~~
|  |---3---|
|  H      +Q   Q   H.         +H.       +H      Q
|--------------------------|-----------------------|
|--------------------------|-----------------------|
|-10b11r=(10)-----11-------|-(11)------(11)----11--|
|-------------11-----------|-----------------------|
|--------------------------|-----------------------|
|--------------------------|-----------------------|


                ~~~~~~~~~~~~~~~
                                  |3-|  |3-|
   H        Q   H.         +Q.    E  Q  E  q E H        W
|-----------------------|----------------------------||------|
|-----------------------|---------------------------o||------|
|--8b10-----8---7-------|--(7)----7--7--8-10---------||------|
|-----------------------|----------------------------||------|
|-----------------------|---------------------------o||------|
|-----------------------|----------------------------||------|
|
|               ~~~~~~~~~~~~~~~
|                                 |3-|  |3-|
|  H        Q   H.         +Q.    E  Q  E  q E H        W
|-----------------------|----------------------------||------|
|-----------------------|---------------------------o||------|
|-11b13----11--10-------|-(10)---10-10-11-13---------||------|
|-----------------------|----------------------------||------|
|-----------------------|---------------------------o||------|
|-----------------------|----------------------------||------|


 Outro
  N.C.
 3/4        6/4
   ~~~~~~~~~~~~~~~
   H.         +W.
|----------|-----------------|
|----------|-----------------|
|--8-------|--(8)------------|
|----------|-----------------|
|----------|-----------------|
|----------|-----------------|
|
|  ~~~~~~~~~~~~~~~
|  H.         +W.
|----------|-----------------|
|----------|-----------------|
|-11-------|-(11)------------|
|----------|-----------------|
|----------|-----------------|
|----------|-----------------|


                  ~~                          ~~~
   |---3---|
   H      +Q   Q  H.        +H          +Q   +H.
|-------------------------|-------------------------|
|-------------------------|-------------------------|
|--7b8r===(7)-------------|-------------------------|
|--------------8--6-------|-(6)b7.5r====(6)--(6)----|
|-------------------------|-------------------------|
|-------------------------|-------------------------|
|
|                 ~~                          ~~~
|  |---3---|
|  H      +Q   Q  H.        +H          +Q   +H.
|-------------------------|-------------------------|
|-------------------------|-------------------------|
|-10b11r=(10)-------------|-------------------------|
|-------------11--9-------|-(9)b10.5r===(9)--(9)----|
|-------------------------|-------------------------|
|-------------------------|-------------------------|


  N.C.
                   ~~~                      ~~~~
   |---3---|
   H      +Q   Q   H.         +H.          +H      Q
|--------------------------|--------------------------|
|--------------------------|--------------------------|
|--7b8r===(7)------8-------|--(8)b10r======(8)-----8--|
|--------------8-----------|--------------------------|
|--------------------------|--------------------------|
|--------------------------|--------------------------|
|
|                  ~~~                      ~~~~
|  |---3---|
|  H      +Q   Q   H.         +H.          +H      Q
|--------------------------|--------------------------|
|--------------------------|--------------------------|
|-10b11r=(10)-----11-------|-(11)b13r=====(11)----11--|
|-------------11-----------|--------------------------|
|--------------------------|--------------------------|
|--------------------------|--------------------------|


                         7/4
                ~~~~~~~~~~~~~~~
                                  |3-|  |3-|     |3-|  |3-|
   H        Q   H.         +Q.    E  Q  E  q Q   E  Q  E  q E
|-----------------------|----------------------------------------*|
|-----------------------|----------------------------------------*|
|--8b10-----8---7-------|--(7)----7--7--8-10----10-10-12-13------*|
|-----------------------|----------------------------------------*|
|-----------------------|----------------------------------------*|
|-----------------------|----------------------------------------*|
|
|               ~~~~~~~~~~~~~~~
|                                 |3-|  |3-|     |3-|  |3-|
|  H        Q   H.         +Q.    E  Q  E  q Q   E  Q  E  q E
|-----------------------|----------------------------------------*|
|-----------------------|----------------------------------------*|
|-11b13----11--10-------|-(10)---10-10-11-13----13-13-15-16------*|
|-----------------------|----------------------------------------*|
|-----------------------|----------------------------------------*|
|-----------------------|----------------------------------------*|



Duration Legend
---------------
W - whole; H - half; Q - quarter; E - 8th; S - 16th; T - 32nd; X - 64th; a - acciaccatura
+ - note tied to previous; . - note dotted; .. - note double dotted
Uncapitalized letters represent notes that are staccato (1/2 duration)
Irregular groupings are notated above the duration line
Duration letters will always appear directly above the note/fret number it represents the
duration for.  Duration letters with no fret number below them represent rests.  Multi-
bar rests are notated in the form Wxn, where n is the number of bars to rest for.  Low
melody durations appear below the staff

Tablature Legend
----------------
 h   - hammer-on
 p   - pull-off
 b   - bend
 pb  - pre-bend
 r   - bend release (if no number after the r, then release immediately)
 /\  - slide into or out of (from/to "nowhere")
 s   - legato slide
 S   - shift slide
 - natural harmonic
[n]  - artificial harmonic
n(n) - tapped harmonic
 ~   - vibrato
 tr  - trill
 T   - tap
 TP  - trem. picking
 PM  - palm muting
\n/  - tremolo bar dip; n = amount to dip
 \n  - tremolo bar down
 n/  - tremolo bar up
/n\  - tremolo bar inverted dip
 =   - hold bend; also acts as connecting device for hammers/pulls
 <> - volume swell (louder/softer)
 x   - on rhythm slash represents muted slash
 o   - on rhythm slash represents single note slash

Misc Legend
-----------
 |  - bar
||  - double bar
||o - repeat start
o|| - repeat end
*|  - double bar (ending)
 :  - bar (freetime)
 $  - Segno
 &  - Coda
Tempo markers -  = BPM(8/16=s8/s16), where s8 = swing 8ths, s16 = swing 16ths

Tap to rate this tab
# A B C D E F G H I J K L M N O P Q R S T U V W X Y Z